  0
SECTION
  2
HEADER
  9
$ACADVER
  1
AC1018
  9
$ACADMAINTVER
 70
     0
  9
$DWGCODEPAGE
  3
ANSI_1252
  9
$INSBASE
 10
0.0
 20
0.0
 30
0.0
  9
$EXTMIN
 10
-0.0000000000164704
 20
-44.50000000000001
 30
-0.0000000000000142
  9
$EXTMAX
 10
222.3560521433285
 20
44.50000000005345
 30
49.7821627002781
  9
$LIMMIN
 10
0.0
 20
0.0
  9
$LIMMAX
 10
12.0
 20
9.0
  9
$ORTHOMODE
 70
     0
  9
$REGENMODE
 70
     1
  9
$FILLMODE
 70
     1
  9
$QTEXTMODE
 70
     0
  9
$MIRRTEXT
 70
     1
  9
$LTSCALE
 40
1.0
  9
$ATTMODE
 70
     1
  9
$TEXTSIZE
 40
0.2
  9
$TRACEWID
 40
0.05
  9
$TEXTSTYLE
  7
Standard
  9
$CLAYER
  8
DEFAULT
  9
$CELTYPE
  6
ByLayer
  9
$CECOLOR
 62
   256
  9
$CELTSCALE
 40
1.0
  9
$DISPSILH
 70
     0
  9
$DIMSCALE
 40
1.0
  9
$DIMASZ
 40
0.18
  9
$DIMEXO
 40
0.0625
  9
$DIMDLI
 40
0.38
  9
$DIMRND
 40
0.0
  9
$DIMDLE
 40
0.0
  9
$DIMEXE
 40
0.18
  9
$DIMTP
 40
0.0
  9
$DIMTM
 40
0.0
  9
$DIMTXT
 40
0.18
  9
$DIMCEN
 40
0.09
  9
$DIMTSZ
 40
0.0
  9
$DIMTOL
 70
     0
  9
$DIMLIM
 70
     0
  9
$DIMTIH
 70
     1
  9
$DIMTOH
 70
     1
  9
$DIMSE1
 70
     0
  9
$DIMSE2
 70
     0
  9
$DIMTAD
 70
     0
  9
$DIMZIN
 70
     0
  9
$DIMBLK
  1

  9
$DIMASO
 70
     1
  9
$DIMSHO
 70
     1
  9
$DIMPOST
  1

  9
$DIMAPOST
  1

  9
$DIMALT
 70
     0
  9
$DIMALTD
 70
     2
  9
$DIMALTF
 40
25.4
  9
$DIMLFAC
 40
1.0
  9
$DIMTOFL
 70
     0
  9
$DIMTVP
 40
0.0
  9
$DIMTIX
 70
     0
  9
$DIMSOXD
 70
     0
  9
$DIMSAH
 70
     0
  9
$DIMBLK1
  1

  9
$DIMBLK2
  1

  9
$DIMSTYLE
  2
Standard
  9
$DIMCLRD
 70
     0
  9
$DIMCLRE
 70
     0
  9
$DIMCLRT
 70
     0
  9
$DIMTFAC
 40
1.0
  9
$DIMGAP
 40
0.09
  9
$DIMJUST
 70
     0
  9
$DIMSD1
 70
     0
  9
$DIMSD2
 70
     0
  9
$DIMTOLJ
 70
     1
  9
$DIMTZIN
 70
     0
  9
$DIMALTZ
 70
     0
  9
$DIMALTTZ
 70
     0
  9
$DIMUPT
 70
     0
  9
$DIMDEC
 70
     4
  9
$DIMTDEC
 70
     4
  9
$DIMALTU
 70
     2
  9
$DIMALTTD
 70
     2
  9
$DIMTXSTY
  7
Standard
  9
$DIMAUNIT
 70
     0
  9
$DIMADEC
 70
     0
  9
$DIMALTRND
 40
0.0
  9
$DIMAZIN
 70
     0
  9
$DIMDSEP
 70
    46
  9
$DIMATFIT
 70
     3
  9
$DIMFRAC
 70
     0
  9
$DIMLDRBLK
  1

  9
$DIMLUNIT
 70
     2
  9
$DIMLWD
 70
    -2
  9
$DIMLWE
 70
    -2
  9
$DIMTMOVE
 70
     0
  9
$LUNITS
 70
     2
  9
$LUPREC
 70
     2
  9
$SKETCHINC
 40
0.1
  9
$FILLETRAD
 40
0.5
  9
$AUNITS
 70
     0
  9
$AUPREC
 70
     0
  9
$MENU
  1
.
  9
$ELEVATION
 40
0.0
  9
$PELEVATION
 40
0.0
  9
$THICKNESS
 40
0.0
  9
$LIMCHECK
 70
     0
  9
$CHAMFERA
 40
0.5
  9
$CHAMFERB
 40
0.5
  9
$CHAMFERC
 40
1.0
  9
$CHAMFERD
 40
0.0
  9
$SKPOLY
 70
     0
  9
$TDCREATE
 40
2455848.692724247
  9
$TDUCREATE
 40
2455848.609390914
  9
$TDUPDATE
 40
2455848.692724259
  9
$TDUUPDATE
 40
2455848.609390926
  9
$TDINDWG
 40
0.0000000116
  9
$TDUSRTIMER
 40
0.0000000116
  9
$USRTIMER
 70
     1
  9
$ANGBASE
 50
0.0
  9
$ANGDIR
 70
     0
  9
$PDMODE
 70
     0
  9
$PDSIZE
 40
0.0
  9
$PLINEWID
 40
0.0
  9
$SPLFRAME
 70
     0
  9
$SPLINETYPE
 70
     6
  9
$SPLINESEGS
 70
     8
  9
$HANDSEED
  5
139
  9
$SURFTAB1
 70
     6
  9
$SURFTAB2
 70
     6
  9
$SURFTYPE
 70
     6
  9
$SURFU
 70
     6
  9
$SURFV
 70
     6
  9
$UCSBASE
  2

  9
$UCSNAME
  2

  9
$UCSORG
 10
0.0
 20
0.0
 30
0.0
  9
$UCSXDIR
 10
1.0
 20
0.0
 30
0.0
  9
$UCSYDIR
 10
0.0
 20
1.0
 30
0.0
  9
$UCSORTHOREF
  2

  9
$UCSORTHOVIEW
 70
     0
  9
$UCSORGTOP
 10
0.0
 20
0.0
 30
0.0
  9
$UCSORGBOTTOM
 10
0.0
 20
0.0
 30
0.0
  9
$UCSORGLEFT
 10
0.0
 20
0.0
 30
0.0
  9
$UCSORGRIGHT
 10
0.0
 20
0.0
 30
0.0
  9
$UCSORGFRONT
 10
0.0
 20
0.0
 30
0.0
  9
$UCSORGBACK
 10
0.0
 20
0.0
 30
0.0
  9
$PUCSBASE
  2

  9
$PUCSNAME
  2

  9
$PUCSORG
 10
0.0
 20
0.0
 30
0.0
  9
$PUCSXDIR
 10
1.0
 20
0.0
 30
0.0
  9
$PUCSYDIR
 10
0.0
 20
1.0
 30
0.0
  9
$PUCSORTHOREF
  2

  9
$PUCSORTHOVIEW
 70
     0
  9
$PUCSORGTOP
 10
0.0
 20
0.0
 30
0.0
  9
$PUCSORGBOTTOM
 10
0.0
 20
0.0
 30
0.0
  9
$PUCSORGLEFT
 10
0.0
 20
0.0
 30
0.0
  9
$PUCSORGRIGHT
 10
0.0
 20
0.0
 30
0.0
  9
$PUCSORGFRONT
 10
0.0
 20
0.0
 30
0.0
  9
$PUCSORGBACK
 10
0.0
 20
0.0
 30
0.0
  9
$USERI1
 70
     0
  9
$USERI2
 70
     0
  9
$USERI3
 70
     0
  9
$USERI4
 70
     0
  9
$USERI5
 70
     0
  9
$USERR1
 40
0.0
  9
$USERR2
 40
0.0
  9
$USERR3
 40
0.0
  9
$USERR4
 40
0.0
  9
$USERR5
 40
0.0
  9
$WORLDVIEW
 70
     1
  9
$SHADEDGE
 70
     3
  9
$SHADEDIF
 70
    70
  9
$TILEMODE
 70
     1
  9
$MAXACTVP
 70
    64
  9
$PINSBASE
 10
0.0
 20
0.0
 30
0.0
  9
$PLIMCHECK
 70
     0
  9
$PEXTMIN
 10
1.000000000000000E+20
 20
1.000000000000000E+20
 30
1.000000000000000E+20
  9
$PEXTMAX
 10
-1.000000000000000E+20
 20
-1.000000000000000E+20
 30
-1.000000000000000E+20
  9
$PLIMMIN
 10
0.0
 20
0.0
  9
$PLIMMAX
 10
12.0
 20
9.0
  9
$UNITMODE
 70
     0
  9
$VISRETAIN
 70
     1
  9
$PLINEGEN
 70
     0
  9
$PSLTSCALE
 70
     1
  9
$TREEDEPTH
 70
  3020
  9
$CMLSTYLE
  2
Standard
  9
$CMLJUST
 70
     0
  9
$CMLSCALE
 40
1.0
  9
$PROXYGRAPHICS
 70
     1
  9
$MEASUREMENT
 70
     0
  9
$CELWEIGHT
370
    -1
  9
$ENDCAPS
280
     0
  9
$JOINSTYLE
280
     0
  9
$LWDISPLAY
290
     0
  9
$INSUNITS
 70
     4
  9
$HYPERLINKBASE
  1

  9
$STYLESHEET
  1

  9
$XEDIT
290
     1
  9
$CEPSNTYPE
380
     0
  9
$PSTYLEMODE
290
     1
  9
$FINGERPRINTGUID
  2
{63441323-BCF3-4FD3-844E-9CB4FB079180}
  9
$VERSIONGUID
  2
{FAEB1C32-E019-11D5-929B-00C0DF256EC4}
  9
$EXTNAMES
290
     1
  9
$PSVPSCALE
 40
0.0
  9
$OLESTARTUP
290
     0
  9
$SORTENTS
280
   127
  9
$INDEXCTL
280
     0
  9
$HIDETEXT
280
     1
  9
$XCLIPFRAME
290
     0
  9
$HALOGAP
280
     0
  9
$OBSCOLOR
 70
   257
  9
$OBSLTYPE
280
     0
  9
$INTERSECTIONDISPLAY
280
     0
  9
$INTERSECTIONCOLOR
 70
   257
  9
$DIMASSOC
280
     2
  9
$PROJECTNAME
  1

  0
ENDSEC
  0
SECTION
  2
CLASSES
  0
CLASS
  1
ACDBDICTIONARYWDFLT
  2
AcDbDictionaryWithDefault
  3
ObjectDBX Classes
 90
        0
 91
        3
280
     0
281
     0
  0
ENDSEC
  0
SECTION
  2
TABLES
  0
TABLE
  2
VPORT
  5
8
330
0
100
AcDbSymbolTable
 70
     1
  0
VPORT
  5
29
330
8
100
AcDbSymbolTableRecord
100
AcDbViewportTableRecord
  2
*Active
 70
     0
 10
0.0
 20
0.0
 11
1.0
 21
1.0
 12
0.0
 22
0.0
 13
0.0
 23
0.0
 14
0.5
 24
0.5
 15
0.5
 25
0.5
 16
0.0
 26
0.0
 36
1.0
 17
111.178026071656
 27
0.0000000000267235
 37
0.0
 40
90.78000000005453
 41
2.49838260835069
 42
50.0
 43
0.0
 44
0.0
 50
0.0
 51
0.0
 71
     0
 72
   100
 73
     1
 74
     3
 75
     0
 76
     0
 77
     0
 78
     0
281
     0
 65
     1
110
0.0
120
0.0
130
0.0
111
1.0
121
0.0
131
0.0
112
0.0
122
1.0
132
0.0
 79
     0
146
0.0
  0
ENDTAB
  0
TABLE
  2
LTYPE
  5
5
330
0
100
AcDbSymbolTable
 70
     1
  0
LTYPE
  5
14
330
5
100
AcDbSymbolTableRecord
100
AcDbLinetypeTableRecord
  2
ByBlock
 70
     0
  3

 72
    65
 73
     0
 40
0.0
  0
LTYPE
  5
15
330
5
100
AcDbSymbolTableRecord
100
AcDbLinetypeTableRecord
  2
ByLayer
 70
     0
  3

 72
    65
 73
     0
 40
0.0
  0
LTYPE
  5
16
330
5
100
AcDbSymbolTableRecord
100
AcDbLinetypeTableRecord
  2
Continuous
 70
     0
  3
Solid line
 72
    65
 73
     0
 40
0.0
  0
ENDTAB
  0
TABLE
  2
LAYER
  5
2
330
0
100
AcDbSymbolTable
 70
     2
  0
LAYER
  5
10
330
2
100
AcDbSymbolTableRecord
100
AcDbLayerTableRecord
  2
0
 70
     0
 62
     7
  6
Continuous
370
    -3
390
F
  0
LAYER
  5
2A
330
2
100
AcDbSymbolTableRecord
100
AcDbLayerTableRecord
  2
DEFAULT
 70
     0
 62
     7
  6
Continuous
370
    -3
390
F
  0
ENDTAB
  0
TABLE
  2
STYLE
  5
3
330
0
100
AcDbSymbolTable
 70
     1
  0
STYLE
  5
11
330
3
100
AcDbSymbolTableRecord
100
AcDbTextStyleTableRecord
  2
Standard
 70
     0
 40
0.0
 41
1.0
 50
0.0
 71
     0
 42
0.2
  3
txt
  4

  0
ENDTAB
  0
TABLE
  2
VIEW
  5
6
330
0
100
AcDbSymbolTable
 70
     0
  0
ENDTAB
  0
TABLE
  2
UCS
  5
7
330
0
100
AcDbSymbolTable
 70
     0
  0
ENDTAB
  0
TABLE
  2
APPID
  5
9
330
0
100
AcDbSymbolTable
 70
     1
  0
APPID
  5
12
330
9
100
AcDbSymbolTableRecord
100
AcDbRegAppTableRecord
  2
ACAD
 70
     0
  0
ENDTAB
  0
TABLE
  2
DIMSTYLE
  5
A
330
0
100
AcDbSymbolTable
 70
     1
100
AcDbDimStyleTable
  0
DIMSTYLE
105
27
330
A
100
AcDbSymbolTableRecord
100
AcDbDimStyleTableRecord
  2
Standard
 70
     0
340
11
  0
ENDTAB
  0
TABLE
  2
BLOCK_RECORD
  5
1
330
0
100
AcDbSymbolTable
 70
     1
  0
BLOCK_RECORD
  5
1F
330
1
100
AcDbSymbolTableRecord
100
AcDbBlockTableRecord
  2
*Model_Space
340
22
  0
BLOCK_RECORD
  5
1B
330
1
100
AcDbSymbolTableRecord
100
AcDbBlockTableRecord
  2
*Paper_Space
340
1E
  0
BLOCK_RECORD
  5
23
330
1
100
AcDbSymbolTableRecord
100
AcDbBlockTableRecord
  2
*Paper_Space0
340
26
  0
ENDTAB
  0
ENDSEC
  0
SECTION
  2
BLOCKS
  0
BLOCK
  5
20
330
1F
100
AcDbEntity
  8
0
100
AcDbBlockBegin
  2
*Model_Space
 70
     0
 71
     0
 10
0.0
 20
0.0
 30
0.0
  3
*Model_Space
  1

  0
ENDBLK
  5
21
330
1F
100
AcDbEntity
  8
0
100
AcDbBlockEnd
  0
BLOCK
  5
1C
330
1B
100
AcDbEntity
 67
     1
  8
0
100
AcDbBlockBegin
  2
*Paper_Space
 70
     0
 71
     0
 10
0.0
 20
0.0
 30
0.0
  3
*Paper_Space
  1

  0
ENDBLK
  5
1D
330
1B
100
AcDbEntity
 67
     1
  8
0
100
AcDbBlockEnd
  0
BLOCK
  5
24
330
23
100
AcDbEntity
  8
0
100
AcDbBlockBegin
  2
*Paper_Space0
 70
     0
 71
     0
 10
0.0
 20
0.0
 30
0.0
  3
*Paper_Space0
  1

  0
ENDBLK
  5
25
330
23
100
AcDbEntity
  8
0
100
AcDbBlockEnd
  0
ENDSEC
  0
SECTION
  2
ENTITIES
  0
POLYLINE
  5
2B
330
1F
100
AcDbEntity
  8
DEFAULT
100
AcDb3dPolyline
 66
     1
 10
0.0
 20
0.0
 30
0.0
 70
     8
  0
VERTEX
  5
2D
330
2B
100
AcDbEntity
  8
DEFAULT
100
AcDbVertex
100
AcDb3dPolylineVertex
 10
200.8560521423136
 20
-21.5000000010365
 30
0.0
 70
    32
  0
VERTEX
  5
2E
330
2B
100
AcDbEntity
  8
DEFAULT
100
AcDbVertex
100
AcDb3dPolylineVertex
 10
202.8560521423136
 20
-21.5000000010365
 30
0.0
 70
    32
  0
VERTEX
  5
2F
330
2B
100
AcDbEntity
  8
DEFAULT
100
AcDbVertex
100
AcDb3dPolylineVertex
 10
198.8560521423136
 20
-21.5000000010365
 30
0.0
 70
    32
  0
SEQEND
  5
2C
330
2B
100
AcDbEntity
  8
DEFAULT
  0
SPLINE
  5
30
330
1F
100
AcDbEntity
  8
DEFAULT
100
AcDbSpline
210
0.0
220
0.0
230
1.0
 70
    24
 71
     3
 72
     8
 73
     4
 74
     0
 42
0.0000000001
 43
0.0000000001
 40
-42.90677462860565
 40
-42.90677462860565
 40
-42.90677462860565
 40
-42.90677462860565
 40
-42.70589540670035
 40
-42.70589540670035
 40
-42.70589540670035
 40
-42.70589540670035
 10
202.8560521423136
 20
-21.40677462860562
 30
-0.0000000000000002
 10
202.8560521423136
 20
-21.33981488797052
 30
0.0
 10
202.8560521423136
 20
-21.27285514733542
 30
0.0
 10
202.8560521423136
 20
-21.20589540670031
 30
-0.0000000000000001
  0
SPLINE
  5
31
330
1F
100
AcDbEntity
  8
DEFAULT
100
AcDbSpline
210
0.0
220
0.0
230
1.0
 70
    24
 71
     3
 72
     8
 73
     4
 74
     0
 42
0.0000000001
 43
0.0000000001
 40
0.0
 40
0.0
 40
0.0
 40
0.0
 40
49.00000000000001
 40
49.00000000000001
 40
49.00000000000001
 40
49.00000000000001
 10
202.8560521423136
 20
-21.40677462860562
 30
49.0
 10
202.8560521423136
 20
-21.40677462860562
 30
32.66666666666666
 10
202.8560521423136
 20
-21.40677462860562
 30
16.33333333333334
 10
202.8560521423136
 20
-21.40677462860562
 30
-0.0000000000000002
  0
SPLINE
  5
32
330
1F
100
AcDbEntity
  8
DEFAULT
100
AcDbSpline
210
0.0
220
0.0
230
1.0
 70
    24
 71
     3
 72
     8
 73
     4
 74
     0
 42
0.0000000001
 43
0.0000000001
 40
-48.99999999999999
 40
-48.99999999999999
 40
-48.99999999999999
 40
-48.99999999999999
 40
0.0
 40
0.0
 40
0.0
 40
0.0
 10
202.8560521423136
 20
-21.20589540670031
 30
-0.0000000000000001
 10
202.8560521423136
 20
-21.20589540670031
 30
16.33333333333333
 10
202.8560521423136
 20
-21.20589540670032
 30
32.66666666666667
 10
202.8560521423136
 20
-21.20589540670031
 30
49.0
  0
SPLINE
  5
33
330
1F
100
AcDbEntity
  8
DEFAULT
100
AcDbSpline
210
0.0
220
0.0
230
1.0
 70
    24
 71
     3
 72
     8
 73
     4
 74
     0
 42
0.0000000001
 43
0.0000000001
 40
-42.90677462860565
 40
-42.90677462860565
 40
-42.90677462860565
 40
-42.90677462860565
 40
-42.70589540670033
 40
-42.70589540670033
 40
-42.70589540670033
 40
-42.70589540670033
 10
202.8560521423136
 20
-21.40677462860562
 30
49.0
 10
202.8560521423136
 20
-21.33981488797053
 30
49.0
 10
202.8560521423136
 20
-21.27285514733542
 30
49.0
 10
202.8560521423136
 20
-21.20589540670031
 30
49.0
  0
SPLINE
  5
34
330
1F
100
AcDbEntity
  8
DEFAULT
100
AcDbSpline
210
0.0
220
0.0
230
1.0
 70
    12
 71
     2
 72
     8
 73
     5
 74
     0
 42
0.0000000001
 43
0.0000000001
 40
-102.5576832754613
 40
-102.5576832754613
 40
-102.5576832754613
 40
-100.3738852821939
 40
-100.3738852821939
 40
-98.19008728892646
 40
-98.19008728892646
 40
-98.19008728892646
 10
202.8560521423136
 20
-21.20589540670031
 30
-0.0000000000000001
 41
0.9642613189915946
 10
201.8582660609228
 20
-21.3
 30
-0.0000000000000001
 41
0.9808828873659254
 10
200.856052142292
 20
-21.3
 30
-0.0000000000000001
 41
1.0
 10
199.8538382236611
 20
-21.3
 30
0.0
 41
0.9808828873659255
 10
198.8560521422703
 20
-21.20589540670031
 30
0.0
 41
0.9642613189915948
  0
SPLINE
  5
35
330
1F
100
AcDbEntity
  8
DEFAULT
100
AcDbSpline
210
0.0
220
0.0
230
1.0
 70
    12
 71
     2
 72
     8
 73
     5
 74
     0
 42
0.0000000001
 43
0.0000000001
 40
-102.5576832754613
 40
-102.5576832754613
 40
-102.5576832754613
 40
-100.3738852821939
 40
-100.3738852821939
 40
-98.19008728892646
 40
-98.19008728892646
 40
-98.19008728892646
 10
202.8560521423136
 20
-21.20589540670031
 30
49.0
 41
0.9642613189915946
 10
201.8582660609228
 20
-21.3
 30
49.0
 41
0.9808828873659254
 10
200.856052142292
 20
-21.3
 30
49.0
 41
1.0
 10
199.8538382236611
 20
-21.3
 30
49.0
 41
0.9808828873659255
 10
198.8560521422703
 20
-21.20589540670031
 30
49.00000000000001
 41
0.9642613189915948
  0
SPLINE
  5
36
330
1F
100
AcDbEntity
  8
DEFAULT
100
AcDbSpline
210
0.0
220
0.0
230
1.0
 70
    24
 71
     3
 72
     8
 73
     4
 74
     0
 42
0.0000000001
 43
0.0000000001
 40
-42.90677462860567
 40
-42.90677462860567
 40
-42.90677462860567
 40
-42.90677462860567
 40
-42.70589540670037
 40
-42.70589540670037
 40
-42.70589540670037
 40
-42.70589540670037
 10
198.8560521422704
 20
-21.40677462860562
 30
-0.0000000000000002
 10
198.8560521422704
 20
-21.33981488797052
 30
0.0
 10
198.8560521422704
 20
-21.27285514733542
 30
0.0
 10
198.8560521422704
 20
-21.20589540670031
 30
0.0
  0
SPLINE
  5
37
330
1F
100
AcDbEntity
  8
DEFAULT
100
AcDbSpline
210
0.0
220
0.0
230
1.0
 70
    24
 71
     3
 72
     8
 73
     4
 74
     0
 42
0.0000000001
 43
0.0000000001
 40
0.0
 40
0.0
 40
0.0
 40
0.0
 40
49.0
 40
49.0
 40
49.0
 40
49.0
 10
198.8560521422704
 20
-21.40677462860562
 30
49.0
 10
198.8560521422704
 20
-21.40677462860563
 30
32.66666666666667
 10
198.8560521422704
 20
-21.40677462860563
 30
16.33333333333333
 10
198.8560521422704
 20
-21.40677462860562
 30
-0.0000000000000002
  0
SPLINE
  5
38
330
1F
100
AcDbEntity
  8
DEFAULT
100
AcDbSpline
210
0.0
220
0.0
230
1.0
 70
    24
 71
     3
 72
     8
 73
     4
 74
     0
 42
0.0000000001
 43
0.0000000001
 40
-48.99999999999999
 40
-48.99999999999999
 40
-48.99999999999999
 40
-48.99999999999999
 40
0.0
 40
0.0
 40
0.0
 40
0.0
 10
198.8560521422704
 20
-21.20589540670031
 30
0.0
 10
198.8560521422704
 20
-21.20589540670031
 30
16.33333333333333
 10
198.8560521422704
 20
-21.20589540670032
 30
32.66666666666667
 10
198.8560521422704
 20
-21.20589540670031
 30
49.00000000000001
  0
SPLINE
  5
39
330
1F
100
AcDbEntity
  8
DEFAULT
100
AcDbSpline
210
0.0
220
0.0
230
1.0
 70
    24
 71
     3
 72
     8
 73
     4
 74
     0
 42
0.0000000001
 43
0.0000000001
 40
-42.90677462860566
 40
-42.90677462860566
 40
-42.90677462860566
 40
-42.90677462860566
 40
-42.70589540670036
 40
-42.70589540670036
 40
-42.70589540670036
 40
-42.70589540670036
 10
198.8560521422704
 20
-21.40677462860562
 30
49.0
 10
198.8560521422704
 20
-21.33981488797052
 30
49.0
 10
198.8560521422704
 20
-21.27285514733542
 30
49.0
 10
198.8560521422704
 20
-21.20589540670031
 30
49.00000000000001
  0
SPLINE
  5
3A
330
1F
100
AcDbEntity
  8
DEFAULT
100
AcDbSpline
210
0.0
220
0.0
230
1.0
 70
    12
 71
     2
 72
     8
 73
     5
 74
     0
 42
0.0000000001
 43
0.0000000001
 40
99.13226470117583
 40
99.13226470117583
 40
99.13226470117583
 40
101.3163630782708
 40
101.3163630782708
 40
103.5004614553658
 40
103.5004614553658
 40
103.5004614553658
 10
198.8560521422704
 20
-21.40677462860562
 30
-0.0000000000000002
 41
0.9645662370458815
 10
199.8538793998133
 20
-21.5
 30
-0.0000000000000002
 41
0.9810581158530614
 10
200.856052142292
 20
-21.5
 30
-0.0000000000000002
 41
1.0
 10
201.8582248847707
 20
-21.5
 30
-0.0000000000000002
 41
0.9810581158530614
 10
202.8560521423136
 20
-21.40677462860562
 30
-0.0000000000000002
 41
0.9645662370458815
  0
SPLINE
  5
3B
330
1F
100
AcDbEntity
  8
DEFAULT
100
AcDbSpline
210
0.0
220
0.0
230
1.0
 70
    12
 71
     2
 72
     8
 73
     5
 74
     0
 42
0.0000000001
 43
0.0000000001
 40
99.13226470117583
 40
99.13226470117583
 40
99.13226470117583
 40
101.3163630782708
 40
101.3163630782708
 40
103.5004614553658
 40
103.5004614553658
 40
103.5004614553658
 10
198.8560521422704
 20
-21.40677462860562
 30
49.0
 41
0.9645662370458815
 10
199.8538793998133
 20
-21.5
 30
49.0
 41
0.9810581158530614
 10
200.856052142292
 20
-21.5
 30
49.0
 41
1.0
 10
201.8582248847707
 20
-21.5
 30
49.0
 41
0.9810581158530614
 10
202.8560521423136
 20
-21.40677462860562
 30
49.0
 41
0.9645662370458815
  0
SPLINE
  5
3C
330
1F
100
AcDbEntity
  8
DEFAULT
100
AcDbSpline
210
0.0
220
0.0
230
1.0
 70
    24
 71
     2
 72
     6
 73
     3
 74
     0
 42
0.0000000001
 43
0.0000000001
 40
50.87269769663229
 40
50.87269769663229
 40
50.87269769663229
 40
51.07357691853761
 40
51.07357691853761
 40
51.07357691853761
 10
202.8560521423136
 20
-21.20589540670031
 30
25.36590924138804
 10
202.8560521423136
 20
-21.30633501765297
 30
25.36590924138804
 10
202.8560521423136
 20
-21.40677462860563
 30
25.36590924138804
  0
LINE
  5
3D
330
1F
100
AcDbEntity
  8
DEFAULT
100
AcDbLine
 10
200.856052142292
 20
-21.5
 30
0.0
 11
200.856052142292
 21
-21.3
 31
0.0
  0
SPLINE
  5
3E
330
1F
100
AcDbEntity
  8
DEFAULT
100
AcDbSpline
210
0.0
220
0.0
230
1.0
 70
    12
 71
     2
 72
     8
 73
     5
 74
     0
 42
0.0000000001
 43
0.0000000001
 40
-103.5004614553658
 40
-103.5004614553658
 40
-103.5004614553658
 40
-101.3163630782708
 40
-101.3163630782708
 40
-99.13226470117579
 40
-99.13226470117579
 40
-99.13226470117579
 10
202.8560521423136
 20
-21.40677462860563
 30
24.50000000000001
 41
0.9645662370458814
 10
201.8582248847707
 20
-21.5
 30
24.5
 41
0.9810581158530614
 10
200.856052142292
 20
-21.5
 30
24.5
 41
1.0
 10
199.8538793998133
 20
-21.5
 30
24.5
 41
0.981058115853061
 10
198.8560521422703
 20
-21.40677462860562
 30
24.5
 41
0.964566237045881
  0
LINE
  5
3F
330
1F
100
AcDbEntity
  8
DEFAULT
100
AcDbLine
 10
200.856052142292
 20
-21.5
 30
0.0
 11
200.856052142292
 21
-21.5
 31
49.0
  0
SPLINE
  5
40
330
1F
100
AcDbEntity
  8
DEFAULT
100
AcDbSpline
210
0.0
220
0.0
230
1.0
 70
    12
 71
     2
 72
     8
 73
     5
 74
     0
 42
0.0000000001
 43
0.0000000001
 40
98.19008728892646
 40
98.19008728892646
 40
98.19008728892646
 40
100.3738852821939
 40
100.3738852821939
 40
102.5576832754613
 40
102.5576832754613
 40
102.5576832754613
 10
198.8560521422704
 20
-21.20589540670031
 30
24.5
 41
0.9642613189915947
 10
199.8538382236612
 20
-21.3
 30
24.5
 41
0.9808828873659254
 10
200.856052142292
 20
-21.3
 30
24.5
 41
1.0
 10
201.8582660609228
 20
-21.3
 30
24.5
 41
0.9808828873659254
 10
202.8560521423136
 20
-21.20589540670031
 30
24.5
 41
0.9642613189915946
  0
LINE
  5
41
330
1F
100
AcDbEntity
  8
DEFAULT
100
AcDbLine
 10
200.856052142292
 20
-21.3
 30
0.0
 11
200.856052142292
 21
-21.3
 31
49.0
  0
LINE
  5
42
330
1F
100
AcDbEntity
  8
DEFAULT
100
AcDbLine
 10
200.856052142292
 20
-21.5
 30
49.0
 11
200.856052142292
 21
-21.3
 31
49.0
  0
SPLINE
  5
43
330
1F
100
AcDbEntity
  8
DEFAULT
100
AcDbSpline
210
0.0
220
0.0
230
1.0
 70
    24
 71
     2
 72
     6
 73
     3
 74
     0
 42
0.0000000001
 43
0.0000000001
 40
50.87269769663229
 40
50.87269769663229
 40
50.87269769663229
 40
51.0735769185376
 40
51.0735769185376
 40
51.0735769185376
 10
198.8560521422704
 20
-21.20589540670031
 30
25.36590924138804
 10
198.8560521422704
 20
-21.30633501765296
 30
25.36590924138804
 10
198.8560521422704
 20
-21.40677462860562
 30
25.36590924138804
  0
SPLINE
  5
44
330
1F
100
AcDbEntity
  8
DEFAULT
100
AcDbSpline
210
0.0
220
0.0
230
1.0
 70
    24
 71
     3
 72
     8
 73
     4
 74
     0
 42
0.0000000001
 43
0.0000000001
 40
-42.90677462860565
 40
-42.90677462860565
 40
-42.90677462860565
 40
-42.90677462860565
 40
-42.70589540670035
 40
-42.70589540670035
 40
-42.70589540670035
 40
-42.70589540670035
 10
218.3948627837418
 20
12.43543812189041
 30
-0.0000000000000002
 10
218.336873947321
 20
12.40195825157286
 30
0.0
 10
218.2788851109002
 20
12.36847838125531
 30
0.0
 10
218.2208962744794
 20
12.33499851093776
 30
-0.0000000000000001
  0
SPLINE
  5
45
330
1F
100
AcDbEntity
  8
DEFAULT
100
AcDbSpline
210
0.0
220
0.0
230
1.0
 70
    24
 71
     3
 72
     8
 73
     4
 74
     0
 42
0.0000000001
 43
0.0000000001
 40
0.0
 40
0.0
 40
0.0
 40
0.0
 40
49.00000000000001
 40
49.00000000000001
 40
49.00000000000001
 40
49.00000000000001
 10
218.3948627837418
 20
12.43543812189041
 30
49.0
 10
218.3948627837418
 20
12.43543812189041
 30
32.66666666666666
 10
218.3948627837418
 20
12.43543812189041
 30
16.33333333333334
 10
218.3948627837418
 20
12.43543812189041
 30
-0.0000000000000002
  0
SPLINE
  5
46
330
1F
100
AcDbEntity
  8
DEFAULT
100
AcDbSpline
210
0.0
220
0.0
230
1.0
 70
    24
 71
     3
 72
     8
 73
     4
 74
     0
 42
0.0000000001
 43
0.0000000001
 40
-48.99999999999999
 40
-48.99999999999999
 40
-48.99999999999999
 40
-48.99999999999999
 40
0.0
 40
0.0
 40
0.0
 40
0.0
 10
218.2208962744794
 20
12.33499851093776
 30
-0.0000000000000001
 10
218.2208962744794
 20
12.33499851093775
 30
16.33333333333333
 10
218.2208962744794
 20
12.33499851093776
 30
32.66666666666667
 10
218.2208962744794
 20
12.33499851093776
 30
49.0
  0
SPLINE
  5
47
330
1F
100
AcDbEntity
  8
DEFAULT
100
AcDbSpline
210
0.0
220
0.0
230
1.0
 70
    24
 71
     3
 72
     8
 73
     4
 74
     0
 42
0.0000000001
 43
0.0000000001
 40
-42.90677462860565
 40
-42.90677462860565
 40
-42.90677462860565
 40
-42.90677462860565
 40
-42.70589540670033
 40
-42.70589540670033
 40
-42.70589540670033
 40
-42.70589540670033
 10
218.3948627837418
 20
12.43543812189041
 30
49.0
 10
218.336873947321
 20
12.40195825157286
 30
49.0
 10
218.2788851109002
 20
12.36847838125531
 30
49.0
 10
218.2208962744794
 20
12.33499851093776
 30
49.0
  0
SPLINE
  5
48
330
1F
100
AcDbEntity
  8
DEFAULT
100
AcDbSpline
210
0.0
220
0.0
230
1.0
 70
    12
 71
     2
 72
     8
 73
     5
 74
     0
 42
0.0000000001
 43
0.0000000001
 40
-102.5576832754613
 40
-102.5576832754613
 40
-102.5576832754613
 40
-100.3738852821939
 40
-100.3738852821939
 40
-98.19008728892646
 40
-98.19008728892646
 40
-98.19008728892646
 10
218.2208962744794
 20
12.33499851093776
 30
-0.0000000000000001
 41
0.9642613189915946
 10
218.8012862835851
 20
11.51794271356063
 30
-0.0000000000000001
 41
0.9808828873659254
 10
219.3023932429005
 20
10.64999999999999
 30
-0.0000000000000001
 41
1.0
 10
219.8035002022159
 20
9.782057286439356
 30
0.0
 41
0.9808828873659255
 10
220.220896274501
 20
8.870896895762543
 30
0.0
 41
0.9642613189915948
  0
SPLINE
  5
49
330
1F
100
AcDbEntity
  8
DEFAULT
100
AcDbSpline
210
0.0
220
0.0
230
1.0
 70
    12
 71
     2
 72
     8
 73
     5
 74
     0
 42
0.0000000001
 43
0.0000000001
 40
-102.5576832754613
 40
-102.5576832754613
 40
-102.5576832754613
 40
-100.3738852821939
 40
-100.3738852821939
 40
-98.19008728892646
 40
-98.19008728892646
 40
-98.19008728892646
 10
218.2208962744794
 20
12.33499851093776
 30
49.0
 41
0.9642613189915946
 10
218.8012862835851
 20
11.51794271356063
 30
49.0
 41
0.9808828873659254
 10
219.3023932429005
 20
10.64999999999999
 30
49.0
 41
1.0
 10
219.8035002022159
 20
9.782057286439356
 30
49.0
 41
0.9808828873659255
 10
220.220896274501
 20
8.870896895762543
 30
49.00000000000001
 41
0.9642613189915948
  0
SPLINE
  5
4A
330
1F
100
AcDbEntity
  8
DEFAULT
100
AcDbSpline
210
0.0
220
0.0
230
1.0
 70
    24
 71
     3
 72
     8
 73
     4
 74
     0
 42
0.0000000001
 43
0.0000000001
 40
-42.90677462860567
 40
-42.90677462860567
 40
-42.90677462860567
 40
-42.90677462860567
 40
-42.70589540670037
 40
-42.70589540670037
 40
-42.70589540670037
 40
-42.70589540670037
 10
220.3948627837635
 20
8.971336506715202
 30
-0.0000000000000002
 10
220.3368739473426
 20
8.937856636397644
 30
0.0
 10
220.2788851109218
 20
8.904376766080095
 30
0.0
 10
220.220896274501
 20
8.870896895762545
 30
0.0
  0
SPLINE
  5
4B
330
1F
100
AcDbEntity
  8
DEFAULT
100
AcDbSpline
210
0.0
220
0.0
230
1.0
 70
    24
 71
     3
 72
     8
 73
     4
 74
     0
 42
0.0000000001
 43
0.0000000001
 40
0.0
 40
0.0
 40
0.0
 40
0.0
 40
49.0
 40
49.0
 40
49.0
 40
49.0
 10
220.3948627837635
 20
8.971336506715202
 30
49.0
 10
220.3948627837635
 20
8.9713365067152
 30
32.66666666666667
 10
220.3948627837635
 20
8.971336506715202
 30
16.33333333333333
 10
220.3948627837635
 20
8.971336506715202
 30
-0.0000000000000002
  0
SPLINE
  5
4C
330
1F
100
AcDbEntity
  8
DEFAULT
100
AcDbSpline
210
0.0
220
0.0
230
1.0
 70
    24
 71
     3
 72
     8
 73
     4
 74
     0
 42
0.0000000001
 43
0.0000000001
 40
-48.99999999999999
 40
-48.99999999999999
 40
-48.99999999999999
 40
-48.99999999999999
 40
0.0
 40
0.0
 40
0.0
 40
0.0
 10
220.220896274501
 20
8.870896895762545
 30
0.0
 10
220.220896274501
 20
8.870896895762543
 30
16.33333333333333
 10
220.220896274501
 20
8.870896895762545
 30
32.66666666666667
 10
220.220896274501
 20
8.870896895762545
 30
49.00000000000001
  0
SPLINE
  5
4D
330
1F
100
AcDbEntity
  8
DEFAULT
100
AcDbSpline
210
0.0
220
0.0
230
1.0
 70
    24
 71
     3
 72
     8
 73
     4
 74
     0
 42
0.0000000001
 43
0.0000000001
 40
-42.90677462860566
 40
-42.90677462860566
 40
-42.90677462860566
 40
-42.90677462860566
 40
-42.70589540670036
 40
-42.70589540670036
 40
-42.70589540670036
 40
-42.70589540670036
 10
220.3948627837635
 20
8.971336506715202
 30
49.0
 10
220.3368739473426
 20
8.937856636397644
 30
49.0
 10
220.2788851109218
 20
8.904376766080095
 30
49.0
 10
220.220896274501
 20
8.870896895762545
 30
49.00000000000001
  0
SPLINE
  5
4E
330
1F
100
AcDbEntity
  8
DEFAULT
100
AcDbSpline
210
0.0
220
0.0
230
1.0
 70
    12
 71
     2
 72
     8
 73
     5
 74
     0
 42
0.0000000001
 43
0.0000000001
 40
99.13226470117583
 40
99.13226470117583
 40
99.13226470117583
 40
101.3163630782708
 40
101.3163630782708
 40
103.5004614553658
 40
103.5004614553658
 40
103.5004614553658
 10
220.3948627837635
 20
8.9713365067152
 30
-0.0000000000000002
 41
0.9645662370458815
 10
219.9766846948967
 20
9.882092946033124
 30
-0.0000000000000002
 41
0.9810581158530614
 10
219.4755983236574
 20
10.74999999999999
 30
-0.0000000000000002
 41
1.0
 10
218.9745119524181
 20
11.61790705396686
 30
-0.0000000000000002
 41
0.9810581158530614
 10
218.3948627837418
 20
12.43543812189041
 30
-0.0000000000000002
 41
0.9645662370458815
  0
SPLINE
  5
4F
330
1F
100
AcDbEntity
  8
DEFAULT
100
AcDbSpline
210
0.0
220
0.0
230
1.0
 70
    12
 71
     2
 72
     8
 73
     5
 74
     0
 42
0.0000000001
 43
0.0000000001
 40
99.13226470117583
 40
99.13226470117583
 40
99.13226470117583
 40
101.3163630782708
 40
101.3163630782708
 40
103.5004614553658
 40
103.5004614553658
 40
103.5004614553658
 10
220.3948627837635
 20
8.9713365067152
 30
49.0
 41
0.9645662370458815
 10
219.9766846948967
 20
9.882092946033124
 30
49.0
 41
0.9810581158530614
 10
219.4755983236574
 20
10.74999999999999
 30
49.0
 41
1.0
 10
218.9745119524181
 20
11.61790705396686
 30
49.0
 41
0.9810581158530614
 10
218.3948627837418
 20
12.43543812189041
 30
49.0
 41
0.9645662370458815
  0
SPLINE
  5
50
330
1F
100
AcDbEntity
  8
DEFAULT
100
AcDbSpline
210
0.0
220
0.0
230
1.0
 70
    24
 71
     2
 72
     6
 73
     3
 74
     0
 42
0.0000000001
 43
0.0000000001
 40
50.87269769663229
 40
50.87269769663229
 40
50.87269769663229
 40
51.07357691853761
 40
51.07357691853761
 40
51.07357691853761
 10
218.2208962744794
 20
12.33499851093775
 30
25.36590924138804
 10
218.3078795291106
 20
12.38521831641408
 30
25.36590924138804
 10
218.3948627837419
 20
12.43543812189042
 30
25.36590924138804
  0
LINE
  5
51
330
1F
100
AcDbEntity
  8
DEFAULT
100
AcDbLine
 10
219.4755983236574
 20
10.75000000000002
 30
0.0
 11
219.3023932429005
 21
10.65000000000002
 31
0.0
  0
SPLINE
  5
52
330
1F
100
AcDbEntity
  8
DEFAULT
100
AcDbSpline
210
0.0
220
0.0
230
1.0
 70
    12
 71
     2
 72
     8
 73
     5
 74
     0
 42
0.0000000001
 43
0.0000000001
 40
-103.5004614553658
 40
-103.5004614553658
 40
-103.5004614553658
 40
-101.3163630782708
 40
-101.3163630782708
 40
-99.13226470117579
 40
-99.13226470117579
 40
-99.13226470117579
 10
218.3948627837419
 20
12.43543812189041
 30
24.50000000000001
 41
0.9645662370458814
 10
218.9745119524181
 20
11.61790705396686
 30
24.5
 41
0.9810581158530614
 10
219.4755983236574
 20
10.74999999999999
 30
24.5
 41
1.0
 10
219.9766846948968
 20
9.882092946033108
 30
24.5
 41
0.981058115853061
 10
220.3948627837635
 20
8.971336506715167
 30
24.5
 41
0.964566237045881
  0
LINE
  5
53
330
1F
100
AcDbEntity
  8
DEFAULT
100
AcDbLine
 10
219.4755983236574
 20
10.74999999999999
 30
0.0
 11
219.4755983236574
 21
10.74999999999999
 31
49.0
  0
SPLINE
  5
54
330
1F
100
AcDbEntity
  8
DEFAULT
100
AcDbSpline
210
0.0
220
0.0
230
1.0
 70
    12
 71
     2
 72
     8
 73
     5
 74
     0
 42
0.0000000001
 43
0.0000000001
 40
98.19008728892646
 40
98.19008728892646
 40
98.19008728892646
 40
100.3738852821939
 40
100.3738852821939
 40
102.5576832754613
 40
102.5576832754613
 40
102.5576832754613
 10
220.2208962745011
 20
8.870896895762547
 30
24.5
 41
0.9642613189915947
 10
219.803500202216
 20
9.782057286439358
 30
24.5
 41
0.9808828873659254
 10
219.3023932429006
 20
10.64999999999999
 30
24.5
 41
1.0
 10
218.8012862835851
 20
11.51794271356063
 30
24.5
 41
0.9808828873659254
 10
218.2208962744794
 20
12.33499851093775
 30
24.5
 41
0.9642613189915946
  0
LINE
  5
55
330
1F
100
AcDbEntity
  8
DEFAULT
100
AcDbLine
 10
219.3023932429006
 20
10.64999999999999
 30
0.0
 11
219.3023932429006
 21
10.64999999999999
 31
49.0
  0
LINE
  5
56
330
1F
100
AcDbEntity
  8
DEFAULT
100
AcDbLine
 10
219.4755983236574
 20
10.75000000000002
 30
49.0
 11
219.3023932429005
 21
10.65000000000002
 31
49.0
  0
SPLINE
  5
57
330
1F
100
AcDbEntity
  8
DEFAULT
100
AcDbSpline
210
0.0
220
0.0
230
1.0
 70
    24
 71
     2
 72
     6
 73
     3
 74
     0
 42
0.0000000001
 43
0.0000000001
 40
50.87269769663229
 40
50.87269769663229
 40
50.87269769663229
 40
51.0735769185376
 40
51.0735769185376
 40
51.0735769185376
 10
220.220896274501
 20
8.87089689576254
 30
25.36590924138804
 10
220.3078795291323
 20
8.921116701238867
 30
25.36590924138804
 10
220.3948627837635
 20
8.971336506715195
 30
25.36590924138804
  0
SPLINE
  5
58
330
1F
100
AcDbEntity
  8
DEFAULT
100
AcDbSpline
210
0.0
220
0.0
230
1.0
 70
    24
 71
     3
 72
     8
 73
     4
 74
     0
 42
0.0000000001
 43
0.0000000001
 40
-42.90677462860565
 40
-42.90677462860565
 40
-42.90677462860565
 40
-42.90677462860565
 40
-42.70589540670035
 40
-42.70589540670035
 40
-42.70589540670035
 40
-42.70589540670035
 10
181.3172415008205
 20
8.971336506715222
 30
-0.0000000000000002
 10
181.3752303372413
 20
8.937856636397669
 30
0.0
 10
181.4332191736621
 20
8.904376766080118
 30
0.0
 10
181.491208010083
 20
8.870896895762563
 30
-0.0000000000000001
  0
SPLINE
  5
59
330
1F
100
AcDbEntity
  8
DEFAULT
100
AcDbSpline
210
0.0
220
0.0
230
1.0
 70
    24
 71
     3
 72
     8
 73
     4
 74
     0
 42
0.0000000001
 43
0.0000000001
 40
0.0
 40
0.0
 40
0.0
 40
0.0
 40
49.00000000000001
 40
49.00000000000001
 40
49.00000000000001
 40
49.00000000000001
 10
181.3172415008205
 20
8.971336506715222
 30
49.0
 10
181.3172415008205
 20
8.97133650671522
 30
32.66666666666666
 10
181.3172415008205
 20
8.97133650671522
 30
16.33333333333334
 10
181.3172415008205
 20
8.971336506715222
 30
-0.0000000000000002
  0
SPLINE
  5
5A
330
1F
100
AcDbEntity
  8
DEFAULT
100
AcDbSpline
210
0.0
220
0.0
230
1.0
 70
    24
 71
     3
 72
     8
 73
     4
 74
     0
 42
0.0000000001
 43
0.0000000001
 40
-48.99999999999999
 40
-48.99999999999999
 40
-48.99999999999999
 40
-48.99999999999999
 40
0.0
 40
0.0
 40
0.0
 40
0.0
 10
181.491208010083
 20
8.870896895762563
 30
-0.0000000000000001
 10
181.491208010083
 20
8.870896895762565
 30
16.33333333333333
 10
181.491208010083
 20
8.870896895762566
 30
32.66666666666667
 10
181.491208010083
 20
8.870896895762563
 30
49.0
  0
SPLINE
  5
5B
330
1F
100
AcDbEntity
  8
DEFAULT
100
AcDbSpline
210
0.0
220
0.0
230
1.0
 70
    24
 71
     3
 72
     8
 73
     4
 74
     0
 42
0.0000000001
 43
0.0000000001
 40
-42.90677462860565
 40
-42.90677462860565
 40
-42.90677462860565
 40
-42.90677462860565
 40
-42.70589540670033
 40
-42.70589540670033
 40
-42.70589540670033
 40
-42.70589540670033
 10
181.3172415008205
 20
8.971336506715222
 30
49.0
 10
181.3752303372413
 20
8.937856636397672
 30
49.0
 10
181.4332191736621
 20
8.90437676608012
 30
49.0
 10
181.491208010083
 20
8.870896895762563
 30
49.0
  0
SPLINE
  5
5C
330
1F
100
AcDbEntity
  8
DEFAULT
100
AcDbSpline
210
0.0
220
0.0
230
1.0
 70
    12
 71
     2
 72
     8
 73
     5
 74
     0
 42
0.0000000001
 43
0.0000000001
 40
-102.5576832754613
 40
-102.5576832754613
 40
-102.5576832754613
 40
-100.3738852821939
 40
-100.3738852821939
 40
-98.19008728892646
 40
-98.19008728892646
 40
-98.19008728892646
 10
181.4912080100829
 20
8.870896895762563
 30
-0.0000000000000001
 41
0.9642613189915946
 10
181.908604082368
 20
9.782057286439379
 30
-0.0000000000000001
 41
0.9808828873659254
 10
182.4097110416835
 20
10.65000000000002
 30
-0.0000000000000001
 41
1.0
 10
182.9108180009988
 20
11.51794271356065
 30
0.0
 41
0.9808828873659255
 10
183.4912080101046
 20
12.33499851093777
 30
0.0
 41
0.9642613189915948
  0
SPLINE
  5
5D
330
1F
100
AcDbEntity
  8
DEFAULT
100
AcDbSpline
210
0.0
220
0.0
230
1.0
 70
    12
 71
     2
 72
     8
 73
     5
 74
     0
 42
0.0000000001
 43
0.0000000001
 40
-102.5576832754613
 40
-102.5576832754613
 40
-102.5576832754613
 40
-100.3738852821939
 40
-100.3738852821939
 40
-98.19008728892646
 40
-98.19008728892646
 40
-98.19008728892646
 10
181.4912080100829
 20
8.870896895762563
 30
49.0
 41
0.9642613189915946
 10
181.908604082368
 20
9.782057286439379
 30
49.0
 41
0.9808828873659254
 10
182.4097110416835
 20
10.65000000000002
 30
49.0
 41
1.0
 10
182.9108180009988
 20
11.51794271356065
 30
49.0
 41
0.9808828873659255
 10
183.4912080101046
 20
12.33499851093777
 30
49.00000000000001
 41
0.9642613189915948
  0
SPLINE
  5
5E
330
1F
100
AcDbEntity
  8
DEFAULT
100
AcDbSpline
210
0.0
220
0.0
230
1.0
 70
    24
 71
     3
 72
     8
 73
     4
 74
     0
 42
0.0000000001
 43
0.0000000001
 40
-42.90677462860567
 40
-42.90677462860567
 40
-42.90677462860567
 40
-42.90677462860567
 40
-42.70589540670037
 40
-42.70589540670037
 40
-42.70589540670037
 40
-42.70589540670037
 10
183.3172415008422
 20
12.43543812189043
 30
-0.0000000000000002
 10
183.375230337263
 20
12.40195825157288
 30
0.0
 10
183.4332191736838
 20
12.36847838125533
 30
0.0
 10
183.4912080101046
 20
12.33499851093777
 30
0.0
  0
SPLINE
  5
5F
330
1F
100
AcDbEntity
  8
DEFAULT
100
AcDbSpline
210
0.0
220
0.0
230
1.0
 70
    24
 71
     3
 72
     8
 73
     4
 74
     0
 42
0.0000000001
 43
0.0000000001
 40
0.0
 40
0.0
 40
0.0
 40
0.0
 40
49.0
 40
49.0
 40
49.0
 40
49.0
 10
183.3172415008422
 20
12.43543812189043
 30
49.0
 10
183.3172415008421
 20
12.43543812189043
 30
32.66666666666667
 10
183.3172415008421
 20
12.43543812189043
 30
16.33333333333333
 10
183.3172415008422
 20
12.43543812189043
 30
-0.0000000000000002
  0
SPLINE
  5
60
330
1F
100
AcDbEntity
  8
DEFAULT
100
AcDbSpline
210
0.0
220
0.0
230
1.0
 70
    24
 71
     3
 72
     8
 73
     4
 74
     0
 42
0.0000000001
 43
0.0000000001
 40
-48.99999999999999
 40
-48.99999999999999
 40
-48.99999999999999
 40
-48.99999999999999
 40
0.0
 40
0.0
 40
0.0
 40
0.0
 10
183.4912080101046
 20
12.33499851093777
 30
0.0
 10
183.4912080101046
 20
12.33499851093777
 30
16.33333333333333
 10
183.4912080101046
 20
12.33499851093778
 30
32.66666666666667
 10
183.4912080101046
 20
12.33499851093777
 30
49.00000000000001
  0
SPLINE
  5
61
330
1F
100
AcDbEntity
  8
DEFAULT
100
AcDbSpline
210
0.0
220
0.0
230
1.0
 70
    24
 71
     3
 72
     8
 73
     4
 74
     0
 42
0.0000000001
 43
0.0000000001
 40
-42.90677462860566
 40
-42.90677462860566
 40
-42.90677462860566
 40
-42.90677462860566
 40
-42.70589540670036
 40
-42.70589540670036
 40
-42.70589540670036
 40
-42.70589540670036
 10
183.3172415008422
 20
12.43543812189043
 30
49.0
 10
183.375230337263
 20
12.40195825157288
 30
49.0
 10
183.4332191736838
 20
12.36847838125533
 30
49.0
 10
183.4912080101046
 20
12.33499851093777
 30
49.00000000000001
  0
SPLINE
  5
62
330
1F
100
AcDbEntity
  8
DEFAULT
100
AcDbSpline
210
0.0
220
0.0
230
1.0
 70
    12
 71
     2
 72
     8
 73
     5
 74
     0
 42
0.0000000001
 43
0.0000000001
 40
99.13226470117583
 40
99.13226470117583
 40
99.13226470117583
 40
101.3163630782708
 40
101.3163630782708
 40
103.5004614553658
 40
103.5004614553658
 40
103.5004614553658
 10
183.3172415008422
 20
12.43543812189043
 30
-0.0000000000000002
 41
0.9645662370458815
 10
182.7375923321659
 20
11.61790705396688
 30
-0.0000000000000002
 41
0.9810581158530614
 10
182.2365059609266
 20
10.75000000000001
 30
-0.0000000000000002
 41
1.0
 10
181.7354195896872
 20
9.882092946033143
 30
-0.0000000000000002
 41
0.9810581158530614
 10
181.3172415008205
 20
8.971336506715222
 30
-0.0000000000000002
 41
0.9645662370458815
  0
SPLINE
  5
63
330
1F
100
AcDbEntity
  8
DEFAULT
100
AcDbSpline
210
0.0
220
0.0
230
1.0
 70
    12
 71
     2
 72
     8
 73
     5
 74
     0
 42
0.0000000001
 43
0.0000000001
 40
99.13226470117583
 40
99.13226470117583
 40
99.13226470117583
 40
101.3163630782708
 40
101.3163630782708
 40
103.5004614553658
 40
103.5004614553658
 40
103.5004614553658
 10
183.3172415008422
 20
12.43543812189043
 30
49.0
 41
0.9645662370458815
 10
182.7375923321659
 20
11.61790705396688
 30
49.0
 41
0.9810581158530614
 10
182.2365059609266
 20
10.75000000000001
 30
49.0
 41
1.0
 10
181.7354195896872
 20
9.882092946033143
 30
49.0
 41
0.9810581158530614
 10
181.3172415008205
 20
8.971336506715222
 30
49.0
 41
0.9645662370458815
  0
SPLINE
  5
64
330
1F
100
AcDbEntity
  8
DEFAULT
100
AcDbSpline
210
0.0
220
0.0
230
1.0
 70
    24
 71
     2
 72
     6
 73
     3
 74
     0
 42
0.0000000001
 43
0.0000000001
 40
50.87269769663229
 40
50.87269769663229
 40
50.87269769663229
 40
51.07357691853761
 40
51.07357691853761
 40
51.07357691853761
 10
181.491208010083
 20
8.87089689576256
 30
25.36590924138804
 10
181.4042247554517
 20
8.92111670123889
 30
25.36590924138804
 10
181.3172415008205
 20
8.971336506715224
 30
25.36590924138804
  0
LINE
  5
65
330
1F
100
AcDbEntity
  8
DEFAULT
100
AcDbLine
 10
182.2365059609266
 20
10.75000000000001
 30
0.0
 11
182.4097110416835
 21
10.65000000000001
 31
0.0
  0
SPLINE
  5
66
330
1F
100
AcDbEntity
  8
DEFAULT
100
AcDbSpline
210
0.0
220
0.0
230
1.0
 70
    12
 71
     2
 72
     8
 73
     5
 74
     0
 42
0.0000000001
 43
0.0000000001
 40
-103.5004614553658
 40
-103.5004614553658
 40
-103.5004614553658
 40
-101.3163630782708
 40
-101.3163630782708
 40
-99.13226470117579
 40
-99.13226470117579
 40
-99.13226470117579
 10
181.3172415008206
 20
8.971336506715224
 30
24.50000000000001
 41
0.9645662370458814
 10
181.7354195896872
 20
9.882092946033143
 30
24.5
 41
0.9810581158530614
 10
182.2365059609266
 20
10.75000000000001
 30
24.5
 41
1.0
 10
182.7375923321659
 20
11.6179070539669
 30
24.5
 41
0.981058115853061
 10
183.3172415008422
 20
12.43543812189046
 30
24.5
 41
0.964566237045881
  0
LINE
  5
67
330
1F
100
AcDbEntity
  8
DEFAULT
100
AcDbLine
 10
182.2365059609266
 20
10.75000000000001
 30
0.0
 11
182.2365059609266
 21
10.75000000000001
 31
49.0
  0
SPLINE
  5
68
330
1F
100
AcDbEntity
  8
DEFAULT
100
AcDbSpline
210
0.0
220
0.0
230
1.0
 70
    12
 71
     2
 72
     8
 73
     5
 74
     0
 42
0.0000000001
 43
0.0000000001
 40
98.19008728892646
 40
98.19008728892646
 40
98.19008728892646
 40
100.3738852821939
 40
100.3738852821939
 40
102.5576832754613
 40
102.5576832754613
 40
102.5576832754613
 10
183.4912080101046
 20
12.33499851093777
 30
24.5
 41
0.9642613189915947
 10
182.9108180009989
 20
11.51794271356065
 30
24.5
 41
0.9808828873659254
 10
182.4097110416835
 20
10.65000000000002
 30
24.5
 41
1.0
 10
181.908604082368
 20
9.782057286439379
 30
24.5
 41
0.9808828873659254
 10
181.4912080100829
 20
8.870896895762563
 30
24.5
 41
0.9642613189915946
  0
LINE
  5
69
330
1F
100
AcDbEntity
  8
DEFAULT
100
AcDbLine
 10
182.4097110416835
 20
10.65000000000002
 30
0.0
 11
182.4097110416835
 21
10.65000000000002
 31
49.0
  0
LINE
  5
6A
330
1F
100
AcDbEntity
  8
DEFAULT
100
AcDbLine
 10
182.2365059609266
 20
10.75000000000001
 30
49.0
 11
182.4097110416835
 21
10.65000000000001
 31
49.0
  0
SPLINE
  5
6B
330
1F
100
AcDbEntity
  8
DEFAULT
100
AcDbSpline
210
0.0
220
0.0
230
1.0
 70
    24
 71
     2
 72
     6
 73
     3
 74
     0
 42
0.0000000001
 43
0.0000000001
 40
50.87269769663229
 40
50.87269769663229
 40
50.87269769663229
 40
51.0735769185376
 40
51.0735769185376
 40
51.0735769185376
 10
183.4912080101046
 20
12.33499851093777
 30
25.36590924138804
 10
183.4042247554734
 20
12.3852183164141
 30
25.36590924138804
 10
183.3172415008421
 20
12.43543812189042
 30
25.36590924138804
  0
CIRCLE
  5
6C
330
1F
100
AcDbEntity
  8
DEFAULT
100
AcDbCircle
 10
200.656052142292
 20
-0.0000000010365024
 30
0.0
 40
21.5
  0
LINE
  5
6D
330
1F
100
AcDbEntity
  8
DEFAULT
100
AcDbLine
 10
222.156052142292
 20
-0.0000000010365024
 30
0.0
 11
222.156052142292
 21
-0.0000000010365024
 31
4.0
  0
CIRCLE
  5
6E
330
1F
100
AcDbEntity
  8
DEFAULT
100
AcDbCircle
 10
200.656052142292
 20
-0.0000000010365024
 30
4.0
 40
21.5
  0
SPLINE
  5
6F
330
1F
100
AcDbEntity
  8
DEFAULT
100
AcDbSpline
210
0.0
220
0.0
230
1.0
 70
    15
 71
     2
 72
    12
 73
     9
 74
     0
 42
0.0000000001
 43
0.0000000001
 40
0.0
 40
0.0
 40
0.0
 40
33.13884695517591
 40
33.13884695517591
 40
66.27769391035181
 40
66.27769391035181
 40
99.41654086552772
 40
99.41654086552772
 40
132.5553878207036
 40
132.5553878207036
 40
132.5553878207036
 10
221.756052142292
 20
-0.0000000000000018
 30
0.0
 41
1.0
 10
221.756052142292
 20
21.1
 30
-0.0000000000000014
 41
0.7071067811865476
 10
200.656052142292
 20
21.1
 30
0.0
 41
1.0
 10
179.556052142292
 20
21.1
 30
-0.0000000000000014
 41
0.7071067811865476
 10
179.556052142292
 20
0.0000000000000018
 30
0.0
 41
1.0
 10
179.556052142292
 20
-21.1
 30
-0.0000000000000014
 41
0.7071067811865476
 10
200.656052142292
 20
-21.1
 30
0.0
 41
1.0
 10
221.756052142292
 20
-21.1
 30
-0.0000000000000014
 41
0.7071067811865476
 10
221.756052142292
 20
-0.0000000000000018
 30
0.0
 41
1.0
  0
SPLINE
  5
70
330
1F
100
AcDbEntity
  8
DEFAULT
100
AcDbSpline
210
0.0
220
0.0
230
1.0
 70
    15
 71
     2
 72
    12
 73
     9
 74
     0
 42
0.0000000001
 43
0.0000000001
 40
0.0
 40
0.0
 40
0.0
 40
33.13884695517591
 40
33.13884695517591
 40
66.27769391035183
 40
66.27769391035183
 40
99.41654086552774
 40
99.41654086552774
 40
132.5553878207037
 40
132.5553878207037
 40
132.5553878207037
 10
221.756052142292
 20
-0.0000000000000018
 30
4.0
 41
1.0
 10
221.756052142292
 20
21.1
 30
4.000000000000001
 41
0.7071067811865476
 10
200.656052142292
 20
21.1
 30
4.0
 41
1.0
 10
179.556052142292
 20
21.1
 30
4.000000000000001
 41
0.7071067811865476
 10
179.556052142292
 20
0.0000000000000018
 30
4.0
 41
1.0
 10
179.556052142292
 20
-21.1
 30
4.000000000000001
 41
0.7071067811865476
 10
200.656052142292
 20
-21.1
 30
4.0
 41
1.0
 10
221.756052142292
 20
-21.1
 30
4.000000000000001
 41
0.7071067811865476
 10
221.756052142292
 20
-0.0000000000000018
 30
4.0
 41
1.0
  0
LINE
  5
71
330
1F
100
AcDbEntity
  8
DEFAULT
100
AcDbLine
 10
221.756052142292
 20
-0.0000000000000018
 30
0.0
 11
221.756052142292
 21
-0.0000000000000018
 31
4.0
  0
LINE
  5
72
330
1F
100
AcDbEntity
  8
DEFAULT
100
AcDbLine
 10
179.156052142292
 20
-0.0000000010365042
 30
0.0
 11
179.5560539248386
 21
-0.0000000010365042
 31
0.0
  0
LINE
  5
73
330
1F
100
AcDbEntity
  8
DEFAULT
100
AcDbLine
 10
221.756052142292
 20
-0.0000000010365042
 30
0.0
 11
222.156052142292
 21
-0.0000000010365042
 31
0.0
  0
LINE
  5
74
330
1F
100
AcDbEntity
  8
DEFAULT
100
AcDbLine
 10
200.656052142292
 20
-21.5000000010365
 30
0.0
 11
200.656052142292
 21
-21.09999791363303
 31
0.0
  0
LINE
  5
75
330
1F
100
AcDbEntity
  8
DEFAULT
100
AcDbLine
 10
200.656052142292
 20
21.09999927631688
 30
0.0
 11
200.656052142292
 21
21.4999999989635
 31
0.0
  0
CIRCLE
  5
76
330
1F
100
AcDbEntity
  8
DEFAULT
100
AcDbCircle
 10
200.656052142292
 20
-0.0000000010365024
 30
2.0
 40
21.5
  0
LINE
  5
77
330
1F
100
AcDbEntity
  8
DEFAULT
100
AcDbLine
 10
200.656052142292
 20
-21.5000000010365
 30
0.0
 11
200.656052142292
 21
-21.5000000010365
 31
4.0
  0
LINE
  5
78
330
1F
100
AcDbEntity
  8
DEFAULT
100
AcDbLine
 10
179.156052142292
 20
-0.0000000010365007
 30
0.0
 11
179.156052142292
 21
-0.0000000010365007
 31
4.0
  0
LINE
  5
79
330
1F
100
AcDbEntity
  8
DEFAULT
100
AcDbLine
 10
200.656052142292
 20
21.49999999896349
 30
0.0
 11
200.656052142292
 21
21.49999999896349
 31
4.0
  0
LINE
  5
7A
330
1F
100
AcDbEntity
  8
DEFAULT
100
AcDbLine
 10
179.156052142292
 20
-0.0000000010365042
 30
4.0
 11
179.5560539248386
 21
-0.0000000010365042
 31
4.0
  0
LINE
  5
7B
330
1F
100
AcDbEntity
  8
DEFAULT
100
AcDbLine
 10
221.756052142292
 20
-0.0000000010365042
 30
4.0
 11
222.156052142292
 21
-0.0000000010365042
 31
4.0
  0
LINE
  5
7C
330
1F
100
AcDbEntity
  8
DEFAULT
100
AcDbLine
 10
200.656052142292
 20
-21.5000000010365
 30
4.0
 11
200.656052142292
 21
-21.09999791363302
 31
4.0
  0
LINE
  5
7D
330
1F
100
AcDbEntity
  8
DEFAULT
100
AcDbLine
 10
200.656052142292
 20
21.09999927631687
 30
4.0
 11
200.656052142292
 21
21.4999999989635
 31
4.0
  0
SPLINE
  5
7E
330
1F
100
AcDbEntity
  8
DEFAULT
100
AcDbSpline
210
0.0
220
0.0
230
1.0
 70
    12
 71
     2
 72
     6
 73
     3
 74
     0
 42
0.0000000001
 43
0.0000000001
 40
-133.3798076896053
 40
-133.3798076896053
 40
-133.3798076896053
 40
-126.6237925731787
 40
-126.6237925731787
 40
-126.6237925731787
 10
221.7004769706546
 20
-1.530419433814759
 30
4.0
 41
0.971862037878131
 10
221.4649620365893
 20
-4.768927921347426
 30
4.0
 41
0.919198482400836
 10
220.2666599802962
 20
-7.786787541984673
 30
4.0
 41
0.8899774236400522
  0
SPLINE
  5
7F
330
1F
100
AcDbEntity
  8
DEFAULT
100
AcDbSpline
210
0.0
220
0.0
230
1.0
 70
    12
 71
     2
 72
     6
 73
     3
 74
     0
 42
0.0000000001
 43
0.0000000001
 40
-125.3421002930562
 40
-125.3421002930562
 40
-125.3421002930562
 40
-124.2465042490787
 40
-124.2465042490787
 40
-124.2465042490787
 10
219.7584848206331
 20
-8.961420968208465
 30
4.000000000000001
 41
0.8797339988096666
 10
219.5237430110446
 20
-9.461803622964043
 30
4.000000000000001
 41
0.8757165380773323
 10
219.2631263424796
 20
-9.949210506804583
 30
4.000000000000001
 41
0.8723155638147715
  0
SPLINE
  5
80
330
1F
100
AcDbEntity
  8
DEFAULT
100
AcDbSpline
210
0.0
220
0.0
230
1.0
 70
    12
 71
     2
 72
     6
 73
     3
 74
     0
 42
0.0000000001
 43
0.0000000001
 40
-122.3862504804267
 40
-122.3862504804267
 40
-122.3862504804267
 40
-116.2572131108184
 40
-116.2572131108184
 40
-116.2572131108184
 10
218.2955038510176
 20
-11.57841713774104
 30
4.0
 41
0.8625436050588915
 10
216.5461832540891
 20
-14.2434667576946
 30
4.000000000000001
 41
0.8493735189437187
 10
214.0876182568937
 20
-16.27276963854284
 30
4.0
 41
0.8554967621417027
  0
SPLINE
  5
81
330
1F
100
AcDbEntity
  8
DEFAULT
100
AcDbSpline
210
0.0
220
0.0
230
1.0
 70
    12
 71
     2
 72
     6
 73
     3
 74
     0
 42
0.0000000001
 43
0.0000000001
 40
-109.3844733365246
 40
-109.3844733365246
 40
-109.3844733365246
 40
-107.436729347846
 40
-107.436729347846
 40
-107.436729347846
 10
208.0762924935572
 20
-19.75221590428414
 30
4.0
 41
0.8934887803693885
 10
207.1835655247913
 20
-20.08758327310996
 30
4.000000000000001
 41
0.9023098683914824
 10
206.2642253499277
 20
-20.34105192149998
 30
4.0
 41
0.9130793934847996
  0
SPLINE
  5
82
330
1F
100
AcDbEntity
  8
DEFAULT
100
AcDbSpline
210
0.0
220
0.0
230
1.0
 70
    12
 71
     2
 72
     6
 73
     3
 74
     0
 42
0.0000000001
 43
0.0000000001
 40
-97.80502270772062
 40
-97.80502270772062
 40
-97.80502270772062
 40
-93.86296693428189
 40
-93.86296693428189
 40
-93.86296693428189
 10
197.4743978963263
 20
-20.85874100369264
 30
4.0
 41
0.9454272679922339
 10
195.5997054220915
 20
-20.57278782610283
 30
4.0
 41
0.9183484248485887
 10
193.8060449843543
 20
-19.95713912203357
 30
4.0
 41
0.8992507812227777
  0
SPLINE
  5
83
330
1F
100
AcDbEntity
  8
DEFAULT
100
AcDbSpline
210
0.0
220
0.0
230
1.0
 70
    12
 71
     2
 72
     6
 73
     3
 74
     0
 42
0.0000000001
 43
0.0000000001
 40
-91.32557843933526
 40
-91.32557843933526
 40
-91.32557843933526
 40
-89.45543766246858
 40
-89.45543766246858
 40
-89.45543766246858
 10
191.4727928175689
 20
-18.99678257429101
 30
4.0
 41
0.8779722813424145
 10
190.6191254254449
 20
-18.58411011208446
 30
4.0
 41
0.8713493754355905
 10
189.8059130058528
 20
-18.0965322843884
 30
4.0
 41
0.8665227379629579
  0
SPLINE
  5
84
330
1F
100
AcDbEntity
  8
DEFAULT
100
AcDbSpline
210
0.0
220
0.0
230
1.0
 70
    12
 71
     2
 72
     6
 73
     3
 74
     0
 42
0.0000000001
 43
0.0000000001
 40
-88.21995549580006
 40
-88.21995549580006
 40
-88.21995549580006
 40
-83.1827663184001
 40
-83.1827663184001
 40
-83.1827663184001
 10
188.7419000604351
 20
-17.41444745521331
 30
4.000000000000001
 41
0.8609294008817064
 10
186.5840008538002
 20
-15.93811354388559
 30
4.000000000000001
 41
0.8511252420634865
 10
184.8517123198817
 20
-13.97972971046931
 30
4.000000000000001
 41
0.8543527258778184
  0
SPLINE
  5
85
330
1F
100
AcDbEntity
  8
DEFAULT
100
AcDbSpline
210
0.0
220
0.0
230
1.0
 70
    12
 71
     2
 72
     6
 73
     3
 74
     0
 42
0.0000000001
 43
0.0000000001
 40
-79.62374747978964
 40
-79.62374747978964
 40
-79.62374747978964
 40
-76.48249611380768
 40
-76.48249611380768
 40
-76.48249611380768
 10
182.6752121664751
 20
-11.04080584758508
 30
4.0
 41
0.8654190119754497
 10
181.8435833540753
 20
-9.686431465726812
 30
4.0
 41
0.8731736093351934
 10
181.2242184978062
 20
-8.222763599485894
 30
4.000000000000001
 41
0.8859961064934317
  0
SPLINE
  5
86
330
1F
100
AcDbEntity
  8
DEFAULT
100
AcDbSpline
210
0.0
220
0.0
230
1.0
 70
    12
 71
     2
 72
     6
 73
     3
 74
     0
 42
0.0000000001
 43
0.0000000001
 40
-73.9011990049227
 40
-73.9011990049227
 40
-73.9011990049227
 40
-70.55308462705065
 40
-70.55308462705065
 40
-70.55308462705065
 10
180.3771374428183
 20
-5.828860833085028
 30
4.0
 41
0.9104918134135809
 10
179.9371065773579
 20
-4.297970211171758
 30
4.0
 41
0.9285974717923975
 10
179.7318921703853
 20
-2.71836889881768
 30
4.0
 41
0.9524604878410072
  0
SPLINE
  5
87
330
1F
100
AcDbEntity
  8
DEFAULT
100
AcDbSpline
210
0.0
220
0.0
230
1.0
 70
    12
 71
     2
 72
     6
 73
     3
 74
     0
 42
0.0000000001
 43
0.0000000001
 40
-61.61900901504401
 40
-61.61900901504401
 40
-61.61900901504401
 40
-59.04355050290473
 40
-59.04355050290473
 40
-59.04355050290473
 10
180.2656849370649
 20
5.426133543878194
 30
4.0
 41
0.9152568228794686
 10
180.5905203560124
 20
6.646802629893669
 30
4.0
 41
0.9007584074761629
 10
181.0586645614072
 20
7.820000000293025
 30
4.0
 41
0.8896666753223696
  0
SPLINE
  5
88
330
1F
100
AcDbEntity
  8
DEFAULT
100
AcDbSpline
210
0.0
220
0.0
230
1.0
 70
    12
 71
     2
 72
     6
 73
     3
 74
     0
 42
0.0000000001
 43
0.0000000001
 40
-54.66985884661958
 40
-54.66985884661958
 40
-54.66985884661958
 40
-53.43971764407524
 40
-53.43971764407524
 40
-53.43971764407524
 10
183.1140246080923
 20
11.72549657751771
 30
4.0
 41
0.8618189951190207
 10
183.4654846305071
 20
12.2513012928756
 30
4.0
 41
0.8592844291727297
 10
183.8478063336175
 20
12.75511163554353
 30
4.0
 41
0.8575270628270351
  0
SPLINE
  5
89
330
1F
100
AcDbEntity
  8
DEFAULT
100
AcDbSpline
210
0.0
220
0.0
230
1.0
 70
    12
 71
     2
 72
     6
 73
     3
 74
     0
 42
0.0000000001
 43
0.0000000001
 40
-48.33710880974297
 40
-48.33710880974297
 40
-48.33710880974297
 40
-43.29179624361753
 40
-43.29179624361753
 40
-43.29179624361753
 10
187.5259842773521
 20
16.51700087370805
 30
4.000000000000001
 41
0.856320333109261
 10
189.5493295770011
 20
18.12544427706755
 30
4.000000000000001
 41
0.8623348322108517
 10
191.9010912103878
 20
19.19793371904468
 30
4.0
 41
0.8814230396508058
  0
SPLINE
  5
8A
330
1F
100
AcDbEntity
  8
DEFAULT
100
AcDbSpline
210
0.0
220
0.0
230
1.0
 70
    12
 71
     2
 72
     6
 73
     3
 74
     0
 42
0.0000000001
 43
0.0000000001
 40
-42.30219940434505
 40
-42.30219940434505
 40
-42.30219940434505
 40
-39.70895041598867
 40
-39.70895041598867
 40
-39.70895041598867
 10
192.8089488566787
 20
19.58655074342894
 30
4.0
 41
0.8894139982312028
 10
193.9898792197351
 20
20.05967552447952
 30
4.0
 41
0.9005432087750735
 10
195.2191002631644
 20
20.38748523639077
 30
4.0
 41
0.9151263297652024
  0
SPLINE
  5
8B
330
1F
100
AcDbEntity
  8
DEFAULT
100
AcDbSpline
210
0.0
220
0.0
230
1.0
 70
    12
 71
     2
 72
     6
 73
     3
 74
     0
 42
0.0000000001
 43
0.0000000001
 40
-31.50516670570004
 40
-31.50516670570004
 40
-31.50516670570004
 40
-29.73580004082359
 40
-29.73580004082359
 40
-29.73580004082359
 10
202.6944478977576
 20
21.00130811983149
 30
4.000000000000001
 41
0.9633184913092288
 10
203.5133876137192
 20
20.92182148826201
 30
4.000000000000001
 41
0.9500334992164019
 10
204.3236508706368
 20
20.77880457504337
 30
4.0
 41
0.9383564044766981
  0
SPLINE
  5
8C
330
1F
100
AcDbEntity
  8
DEFAULT
100
AcDbSpline
210
0.0
220
0.0
230
1.0
 70
    12
 71
     2
 72
     6
 73
     3
 74
     0
 42
0.0000000001
 43
0.0000000001
 40
-28.97555528367462
 40
-28.97555528367462
 40
-28.97555528367462
 40
-25.49928034103194
 40
-25.49928034103194
 40
-25.49928034103194
 10
205.0300588376602
 20
20.64165849511308
 30
4.0
 41
0.9286186417596487
 10
206.6864458117063
 20
20.29066694487918
 30
4.0
 41
0.9070339968556449
 10
208.2656673992705
 20
19.68003444206233
 30
4.0
 41
0.8916559107573836
  0
SPLINE
  5
8D
330
1F
100
AcDbEntity
  8
DEFAULT
100
AcDbSpline
210
0.0
220
0.0
230
1.0
 70
    12
 71
     2
 72
     6
 73
     3
 74
     0
 42
0.0000000001
 43
0.0000000001
 40
-18.04924304887117
 40
-18.04924304887117
 40
-18.04924304887117
 40
-15.60226225476024
 40
-15.60226225476024
 40
-15.60226225476024
 10
214.7010093476984
 20
15.74640203660199
 30
4.000000000000001
 41
0.8542482843097506
 10
215.6470248982001
 20
14.90260623540499
 30
4.000000000000002
 41
0.8527864401659508
 10
216.4852130883427
 20
13.9516186782761
 30
4.0
 41
0.8543998696216822
  0
SPLINE
  5
8E
330
1F
100
AcDbEntity
  8
DEFAULT
100
AcDbSpline
210
0.0
220
0.0
230
1.0
 70
    12
 71
     2
 72
     6
 73
     3
 74
     0
 42
0.0000000001
 43
0.0000000001
 40
-6.826129982738684
 40
-6.826129982738684
 40
-6.826129982738684
 40
0.0
 40
0.0
 40
0.0
 10
220.804107313877
 20
6.266248702594263
 30
4.0
 41
0.905530557261816
 10
221.756052142292
 20
3.20543228219451
 30
4.0
 41
0.9407994783289213
 10
221.756052142292
 20
0.0
 30
4.0
 41
1.0
  0
LINE
  5
8F
330
1F
100
AcDbEntity
  8
DEFAULT
100
AcDbLine
 10
200.656052142292
 20
-21.1
 30
-0.0000000000000027
 11
200.656052142292
 21
-21.1
 31
3.99999999999999
  0
LINE
  5
90
330
1F
100
AcDbEntity
  8
DEFAULT
100
AcDbLine
 10
179.556052142292
 20
0.0000000000000018
 30
0.0000000000000062
 11
179.556052142292
 21
0.0000000000000018
 31
3.999999999999995
  0
LINE
  5
91
330
1F
100
AcDbEntity
  8
DEFAULT
100
AcDbLine
 10
200.656052142292
 20
21.1
 30
0.0000000000000044
 11
200.656052142292
 21
21.1
 31
3.999999999999999
  0
CIRCLE
  5
92
330
1F
100
AcDbEntity
  8
DEFAULT
100
AcDbCircle
 10
200.8560521423136
 20
-0.0000000010365024
 30
0.0
 40
21.5
  0
SPLINE
  5
93
330
1F
100
AcDbEntity
  8
DEFAULT
100
AcDbSpline
210
0.0
220
0.0
230
1.0
 70
    15
 71
     2
 72
    12
 73
     9
 74
     0
 42
0.0000000001
 43
0.0000000001
 40
0.0
 40
0.0
 40
0.0
 40
33.77212102609028
 40
33.77212102609028
 40
67.54424205218055
 40
67.54424205218055
 40
101.3163630782708
 40
101.3163630782708
 40
135.0884841043611
 40
135.0884841043611
 40
135.0884841043611
 10
221.9560521423136
 20
-0.0000000010365024
 30
0.0
 41
1.0
 10
221.9560521423136
 20
21.09999999896349
 30
0.0000000000000006
 41
0.7071067811865476
 10
200.8560521423136
 20
21.0999999989635
 30
0.0
 41
1.0
 10
179.7560521423136
 20
21.0999999989635
 30
0.0000000000000006
 41
0.7071067811865476
 10
179.7560521423136
 20
-0.0000000010365007
 30
0.0
 41
1.0
 10
179.7560521423136
 20
-21.1000000010365
 30
0.0000000000000006
 41
0.7071067811865476
 10
200.8560521423136
 20
-21.1000000010365
 30
0.0
 41
1.0
 10
221.9560521423136
 20
-21.10000000103651
 30
0.0000000000000006
 41
0.7071067811865476
 10
221.9560521423136
 20
-0.0000000010365024
 30
0.0
 41
1.0
  0
SPLINE
  5
94
330
1F
100
AcDbEntity
  8
DEFAULT
100
AcDbSpline
210
0.0
220
0.0
230
1.0
 70
    15
 71
     2
 72
    12
 73
     9
 74
     0
 42
0.0000000001
 43
0.0000000001
 40
0.0
 40
0.0
 40
0.0
 40
33.77212102609028
 40
33.77212102609028
 40
67.54424205218055
 40
67.54424205218055
 40
101.3163630782708
 40
101.3163630782708
 40
135.0884841043611
 40
135.0884841043611
 40
135.0884841043611
 10
222.3560521422704
 20
0.0000000010365007
 30
49.0
 41
1.0
 10
222.3560521422704
 20
21.5000000010365
 30
49.0
 41
0.7071067811865476
 10
200.8560521422704
 20
21.5000000010365
 30
49.0
 41
1.0
 10
179.3560521422704
 20
21.5000000010365
 30
49.0
 41
0.7071067811865476
 10
179.3560521422704
 20
0.0000000010365033
 30
49.0
 41
1.0
 10
179.3560521422704
 20
-21.4999999989635
 30
49.0
 41
0.7071067811865476
 10
200.8560521422704
 20
-21.4999999989635
 30
49.0
 41
1.0
 10
222.3560521422703
 20
-21.4999999989635
 30
49.0
 41
0.7071067811865476
 10
222.3560521422704
 20
0.0000000010365007
 30
49.0
 41
1.0
  0
SPLINE
  5
95
330
1F
100
AcDbEntity
  8
DEFAULT
100
AcDbSpline
210
0.0
220
0.0
230
1.0
 70
    15
 71
     2
 72
    12
 73
     9
 74
     0
 42
0.0000000001
 43
0.0000000001
 40
-133.8318470429252
 40
-133.8318470429252
 40
-133.8318470429252
 40
-100.3738852821939
 40
-100.3738852821939
 40
-66.9159235214626
 40
-66.9159235214626
 40
-33.4579617607313
 40
-33.4579617607313
 40
0.0
 40
0.0
 40
0.0
 10
222.1560521422704
 20
0.0000000010364954
 30
49.0
 41
1.0
 10
222.1560521422704
 20
-21.2999999989635
 30
49.0
 41
0.7071067811865476
 10
200.8560521422704
 20
-21.2999999989635
 30
49.0
 41
1.0
 10
179.5560521422704
 20
-21.2999999989635
 30
49.0
 41
0.7071067811865476
 10
179.5560521422703
 20
0.0000000010365033
 30
49.0
 41
1.0
 10
179.5560521422704
 20
21.3000000010365
 30
49.0
 41
0.7071067811865476
 10
200.8560521422704
 20
21.3000000010365
 30
49.0
 41
1.0
 10
222.1560521422704
 20
21.30000000103649
 30
49.0
 41
0.7071067811865476
 10
222.1560521422704
 20
0.0000000010364954
 30
49.0
 41
1.0
  0
LINE
  5
96
330
1F
100
AcDbEntity
  8
DEFAULT
100
AcDbLine
 10
179.3560521422704
 20
0.0000000010364989
 30
49.0
 11
179.5560521422703
 21
0.0000000010364989
 31
49.0
  0
LINE
  5
97
330
1F
100
AcDbEntity
  8
DEFAULT
100
AcDbLine
 10
222.1560521422704
 20
0.0000000010364989
 30
49.0
 11
222.3560521422704
 21
0.0000000010364989
 31
49.0
  0
LINE
  5
98
330
1F
100
AcDbEntity
  8
DEFAULT
100
AcDbLine
 10
200.8560521422704
 20
-21.4999999989635
 30
49.0
 11
200.8560521422704
 21
-21.2999999989635
 31
49.0
  0
LINE
  5
99
330
1F
100
AcDbEntity
  8
DEFAULT
100
AcDbLine
 10
200.8560521422704
 20
21.3000000010365
 30
49.0
 11
200.8560521422704
 21
21.5000000010365
 31
49.0
  0
SPLINE
  5
9A
330
1F
100
AcDbEntity
  8
DEFAULT
100
AcDbSpline
210
0.0
220
0.0
230
1.0
 70
    15
 71
     2
 72
    12
 73
     9
 74
     0
 42
0.0000000001
 43
0.0000000001
 40
0.0
 40
0.0
 40
0.0
 40
33.77212102609028
 40
33.77212102609028
 40
67.54424205218055
 40
67.54424205218055
 40
101.3163630782708
 40
101.3163630782708
 40
135.0884841043611
 40
135.0884841043611
 40
135.0884841043611
 10
222.3560521422704
 20
0.0000000000000036
 30
48.6
 41
1.0
 10
222.3560521422704
 20
21.5
 30
48.6
 41
0.7071067811865476
 10
200.8560521422704
 20
21.5
 30
48.6
 41
1.0
 10
179.3560521422704
 20
21.5
 30
48.6
 41
0.7071067811865476
 10
179.3560521422704
 20
0.0000000000000062
 30
48.6
 41
1.0
 10
179.3560521422704
 20
-21.49999999999999
 30
48.6
 41
0.7071067811865476
 10
200.8560521422704
 20
-21.5
 30
48.6
 41
1.0
 10
222.3560521422704
 20
-21.5
 30
48.6
 41
0.7071067811865476
 10
222.3560521422704
 20
0.0000000000000036
 30
48.6
 41
1.0
  0
SPLINE
  5
9B
330
1F
100
AcDbEntity
  8
DEFAULT
100
AcDbSpline
210
0.0
220
0.0
230
1.0
 70
    15
 71
     2
 72
    12
 73
     9
 74
     0
 42
0.0000000001
 43
0.0000000001
 40
-133.8318470429252
 40
-133.8318470429252
 40
-133.8318470429252
 40
-100.3738852821939
 40
-100.3738852821939
 40
-66.9159235214626
 40
-66.9159235214626
 40
-33.4579617607313
 40
-33.4579617607313
 40
0.0
 40
0.0
 40
0.0
 10
222.1560521422704
 20
-0.0000000000000017
 30
48.6
 41
1.0
 10
222.1560521422704
 20
-21.3
 30
48.6
 41
0.7071067811865476
 10
200.8560521422704
 20
-21.3
 30
48.6
 41
1.0
 10
179.5560521422704
 20
-21.29999999999999
 30
48.6
 41
0.7071067811865476
 10
179.5560521422704
 20
0.0000000000000062
 30
48.6
 41
1.0
 10
179.5560521422704
 20
21.3
 30
48.6
 41
0.7071067811865476
 10
200.8560521422704
 20
21.3
 30
48.6
 41
1.0
 10
222.1560521422704
 20
21.3
 30
48.6
 41
0.7071067811865476
 10
222.1560521422704
 20
-0.0000000000000017
 30
48.6
 41
1.0
  0
LINE
  5
9C
330
1F
100
AcDbEntity
  8
DEFAULT
100
AcDbLine
 10
222.3560521422704
 20
0.0000000000000036
 30
48.6
 11
222.3560521422704
 21
0.0000000000000036
 31
49.0
  0
SPLINE
  5
9D
330
1F
100
AcDbEntity
  8
DEFAULT
100
AcDbSpline
210
0.0
220
0.0
230
1.0
 70
    15
 71
     2
 72
    12
 73
     9
 74
     0
 42
0.0000000001
 43
0.0000000001
 40
0.0
 40
0.0
 40
0.0
 40
33.77212102609028
 40
33.77212102609028
 40
67.54424205218055
 40
67.54424205218055
 40
101.3163630782708
 40
101.3163630782708
 40
135.0884841043611
 40
135.0884841043611
 40
135.0884841043611
 10
222.3560521422704
 20
0.0000000000000036
 30
49.0
 41
1.0
 10
222.3560521422704
 20
21.5
 30
49.0
 41
0.7071067811865476
 10
200.8560521422704
 20
21.5
 30
49.0
 41
1.0
 10
179.3560521422704
 20
21.5
 30
49.0
 41
0.7071067811865476
 10
179.3560521422704
 20
0.0000000000000062
 30
49.0
 41
1.0
 10
179.3560521422704
 20
-21.49999999999999
 30
49.0
 41
0.7071067811865476
 10
200.8560521422704
 20
-21.5
 30
49.0
 41
1.0
 10
222.3560521422704
 20
-21.5
 30
49.0
 41
0.7071067811865476
 10
222.3560521422704
 20
0.0000000000000036
 30
49.0
 41
1.0
  0
LINE
  5
9E
330
1F
100
AcDbEntity
  8
DEFAULT
100
AcDbLine
 10
222.1560521422704
 20
-0.0000000000000017
 30
48.6
 11
222.1560521422704
 21
-0.0000000000000017
 31
49.0
  0
SPLINE
  5
9F
330
1F
100
AcDbEntity
  8
DEFAULT
100
AcDbSpline
210
0.0
220
0.0
230
1.0
 70
    15
 71
     2
 72
    12
 73
     9
 74
     0
 42
0.0000000001
 43
0.0000000001
 40
-133.8318470429252
 40
-133.8318470429252
 40
-133.8318470429252
 40
-100.3738852821939
 40
-100.3738852821939
 40
-66.9159235214626
 40
-66.9159235214626
 40
-33.4579617607313
 40
-33.4579617607313
 40
0.0
 40
0.0
 40
0.0
 10
222.1560521422704
 20
-0.0000000000000017
 30
49.0
 41
1.0
 10
222.1560521422704
 20
-21.3
 30
49.0
 41
0.7071067811865476
 10
200.8560521422704
 20
-21.3
 30
49.0
 41
1.0
 10
179.5560521422704
 20
-21.29999999999999
 30
49.0
 41
0.7071067811865476
 10
179.5560521422704
 20
0.0000000000000062
 30
49.0
 41
1.0
 10
179.5560521422704
 20
21.3
 30
49.0
 41
0.7071067811865476
 10
200.8560521422704
 20
21.3
 30
49.0
 41
1.0
 10
222.1560521422704
 20
21.3
 30
49.0
 41
0.7071067811865476
 10
222.1560521422704
 20
-0.0000000000000017
 30
49.0
 41
1.0
  0
LINE
  5
A0
330
1F
100
AcDbEntity
  8
DEFAULT
100
AcDbLine
 10
179.3560521422704
 20
0.0000000000000018
 30
48.6
 11
179.5560521422703
 21
0.0000000000000018
 31
48.6
  0
LINE
  5
A1
330
1F
100
AcDbEntity
  8
DEFAULT
100
AcDbLine
 10
222.1560521422704
 20
0.0000000000000018
 30
48.6
 11
222.3560521422704
 21
0.0000000000000018
 31
48.6
  0
LINE
  5
A2
330
1F
100
AcDbEntity
  8
DEFAULT
100
AcDbLine
 10
200.8560521422704
 20
-21.49999999999999
 30
48.6
 11
200.8560521422704
 21
-21.3
 31
48.6
  0
LINE
  5
A3
330
1F
100
AcDbEntity
  8
DEFAULT
100
AcDbLine
 10
200.8560521422704
 20
21.30000000000001
 30
48.6
 11
200.8560521422704
 21
21.5
 31
48.6
  0
SPLINE
  5
A4
330
1F
100
AcDbEntity
  8
DEFAULT
100
AcDbSpline
210
0.0
220
0.0
230
1.0
 70
    15
 71
     2
 72
    12
 73
     9
 74
     0
 42
0.0000000001
 43
0.0000000001
 40
-135.0884841043611
 40
-135.0884841043611
 40
-135.0884841043611
 40
-101.3163630782708
 40
-101.3163630782708
 40
-67.54424205218055
 40
-67.54424205218055
 40
-33.77212102609028
 40
-33.77212102609028
 40
0.0
 40
0.0
 40
0.0
 10
222.3560521422704
 20
0.0000000000000036
 30
48.8
 41
1.0
 10
222.3560521422704
 20
-21.5
 30
48.8
 41
0.7071067811865476
 10
200.8560521422704
 20
-21.5
 30
48.8
 41
1.0
 10
179.3560521422704
 20
-21.49999999999999
 30
48.8
 41
0.7071067811865476
 10
179.3560521422704
 20
0.0000000000000062
 30
48.8
 41
1.0
 10
179.3560521422704
 20
21.5
 30
48.8
 41
0.7071067811865476
 10
200.8560521422704
 20
21.5
 30
48.8
 41
1.0
 10
222.3560521422704
 20
21.5
 30
48.8
 41
0.7071067811865476
 10
222.3560521422704
 20
0.0000000000000036
 30
48.8
 41
1.0
  0
LINE
  5
A5
330
1F
100
AcDbEntity
  8
DEFAULT
100
AcDbLine
 10
200.8560521422704
 20
-21.5
 30
48.6
 11
200.8560521422704
 21
-21.5
 31
49.0
  0
LINE
  5
A6
330
1F
100
AcDbEntity
  8
DEFAULT
100
AcDbLine
 10
179.3560521422704
 20
0.0000000000000062
 30
48.6
 11
179.3560521422704
 21
0.0000000000000062
 31
49.0
  0
LINE
  5
A7
330
1F
100
AcDbEntity
  8
DEFAULT
100
AcDbLine
 10
200.8560521422704
 20
21.5
 30
48.6
 11
200.8560521422704
 21
21.5
 31
49.0
  0
SPLINE
  5
A8
330
1F
100
AcDbEntity
  8
DEFAULT
100
AcDbSpline
210
0.0
220
0.0
230
1.0
 70
    15
 71
     2
 72
    12
 73
     9
 74
     0
 42
0.0000000001
 43
0.0000000001
 40
0.0
 40
0.0
 40
0.0
 40
33.4579617607313
 40
33.4579617607313
 40
66.9159235214626
 40
66.9159235214626
 40
100.3738852821939
 40
100.3738852821939
 40
133.8318470429252
 40
133.8318470429252
 40
133.8318470429252
 10
222.1560521422704
 20
-0.0000000000000017
 30
48.8
 41
1.0
 10
222.1560521422704
 20
21.3
 30
48.8
 41
0.7071067811865476
 10
200.8560521422704
 20
21.3
 30
48.8
 41
1.0
 10
179.5560521422704
 20
21.3
 30
48.8
 41
0.7071067811865476
 10
179.5560521422704
 20
0.0000000000000062
 30
48.8
 41
1.0
 10
179.5560521422704
 20
-21.29999999999999
 30
48.8
 41
0.7071067811865476
 10
200.8560521422704
 20
-21.3
 30
48.8
 41
1.0
 10
222.1560521422704
 20
-21.3
 30
48.8
 41
0.7071067811865476
 10
222.1560521422704
 20
-0.0000000000000017
 30
48.8
 41
1.0
  0
LINE
  5
A9
330
1F
100
AcDbEntity
  8
DEFAULT
100
AcDbLine
 10
200.8560521422704
 20
21.3
 30
48.6
 11
200.8560521422704
 21
21.3
 31
49.0
  0
LINE
  5
AA
330
1F
100
AcDbEntity
  8
DEFAULT
100
AcDbLine
 10
179.5560521422704
 20
0.0000000000000062
 30
48.6
 11
179.5560521422704
 21
0.0000000000000062
 31
49.0
  0
LINE
  5
AB
330
1F
100
AcDbEntity
  8
DEFAULT
100
AcDbLine
 10
200.8560521422704
 20
-21.3
 30
48.6
 11
200.8560521422704
 21
-21.3
 31
49.0
  0
LINE
  5
AC
330
1F
100
AcDbEntity
  8
DEFAULT
100
AcDbLine
 10
179.3560521422704
 20
0.0000000000000018
 30
49.0
 11
179.5560521422703
 21
0.0000000000000018
 31
49.0
  0
LINE
  5
AD
330
1F
100
AcDbEntity
  8
DEFAULT
100
AcDbLine
 10
222.1560521422704
 20
0.0000000000000018
 30
49.0
 11
222.3560521422704
 21
0.0000000000000018
 31
49.0
  0
LINE
  5
AE
330
1F
100
AcDbEntity
  8
DEFAULT
100
AcDbLine
 10
200.8560521422704
 20
-21.49999999999999
 30
49.0
 11
200.8560521422704
 21
-21.3
 31
49.0
  0
LINE
  5
AF
330
1F
100
AcDbEntity
  8
DEFAULT
100
AcDbLine
 10
200.8560521422704
 20
21.30000000000001
 30
49.0
 11
200.8560521422704
 21
21.5
 31
49.0
  0
CIRCLE
  5
B0
330
1F
100
AcDbEntity
  8
DEFAULT
100
AcDbCircle
 10
200.856052142292
 20
0.0
 30
49.7821627002781
 40
21.5000000010365
  0
LINE
  5
B1
330
1F
100
AcDbEntity
  8
DEFAULT
100
AcDbLine
 10
200.8560521423136
 20
-21.5000000010365
 30
49.7821627002781
 11
200.8560521423136
 21
-21.5000000010365
 31
48.9821627002781
  0
CIRCLE
  5
B2
330
1F
100
AcDbEntity
  8
DEFAULT
100
AcDbCircle
 10
200.856052142292
 20
0.0
 30
48.9821627002781
 40
21.5000000010365
  0
CIRCLE
  5
B3
330
1F
100
AcDbEntity
  8
DEFAULT
100
AcDbCircle
 10
200.856052142292
 20
0.0
 30
49.3821627002781
 40
21.5000000010365
  0
LINE
  5
B4
330
1F
100
AcDbEntity
  8
DEFAULT
100
AcDbLine
 10
179.3560521412555
 20
-0.0000000000216289
 30
49.7821627002781
 11
179.3560521412555
 21
-0.0000000000216289
 31
48.9821627002781
  0
LINE
  5
B5
330
1F
100
AcDbEntity
  8
DEFAULT
100
AcDbLine
 10
200.8560521422704
 20
21.5000000010365
 30
49.7821627002781
 11
200.8560521422704
 21
21.5000000010365
 31
48.9821627002781
  0
LINE
  5
B6
330
1F
100
AcDbEntity
  8
DEFAULT
100
AcDbLine
 10
222.3560521433285
 20
0.0000000000216289
 30
49.7821627002781
 11
222.3560521433285
 21
0.0000000000216289
 31
48.9821627002781
  0
SPLINE
  5
B7
330
1F
100
AcDbEntity
  8
DEFAULT
100
AcDbSpline
210
0.0
220
0.0
230
1.0
 70
    24
 71
     2
 72
     6
 73
     3
 74
     0
 42
0.0000000001
 43
0.0000000001
 40
-21.5000000010365
 40
-21.5000000010365
 40
-21.5000000010365
 40
21.5000000010365
 40
21.5000000010365
 40
21.5000000010365
 10
200.8560521422704
 20
21.5000000010365
 30
49.7821627002781
 10
200.856052142292
 20
0.0
 30
49.7821627002781
 10
200.8560521423136
 20
-21.5000000010365
 30
49.7821627002781
  0
SPLINE
  5
B8
330
1F
100
AcDbEntity
  8
DEFAULT
100
AcDbSpline
210
0.0
220
0.0
230
1.0
 70
    24
 71
     2
 72
     6
 73
     3
 74
     0
 42
0.0000000001
 43
0.0000000001
 40
-21.5000000010365
 40
-21.5000000010365
 40
-21.5000000010365
 40
21.5000000010365
 40
21.5000000010365
 40
21.5000000010365
 10
179.3560521412555
 20
-0.0000000000216218
 30
49.7821627002781
 10
200.856052142292
 20
0.0
 30
49.7821627002781
 10
222.3560521433284
 20
0.0000000000216218
 30
49.7821627002781
  0
SPLINE
  5
B9
330
1F
100
AcDbEntity
  8
DEFAULT
100
AcDbSpline
210
0.0
220
0.0
230
1.0
 70
    24
 71
     2
 72
     6
 73
     3
 74
     0
 42
0.0000000001
 43
0.0000000001
 40
-21.5000000010365
 40
-21.5000000010365
 40
-21.5000000010365
 40
21.5000000010365
 40
21.5000000010365
 40
21.5000000010365
 10
200.8560521422704
 20
21.5000000010365
 30
48.9821627002781
 10
200.856052142292
 20
0.0
 30
48.9821627002781
 10
200.8560521423136
 20
-21.5000000010365
 30
48.9821627002781
  0
SPLINE
  5
BA
330
1F
100
AcDbEntity
  8
DEFAULT
100
AcDbSpline
210
0.0
220
0.0
230
1.0
 70
    24
 71
     2
 72
     6
 73
     3
 74
     0
 42
0.0000000001
 43
0.0000000001
 40
-21.5000000010365
 40
-21.5000000010365
 40
-21.5000000010365
 40
21.5000000010365
 40
21.5000000010365
 40
21.5000000010365
 10
222.3560521433284
 20
0.0000000000216218
 30
48.9821627002781
 10
200.856052142292
 20
0.0
 30
48.9821627002781
 10
179.3560521412555
 20
-0.0000000000216218
 30
48.9821627002781
  0
CIRCLE
  5
BB
330
1F
100
AcDbEntity
  8
DEFAULT
100
AcDbCircle
 10
44.5
 20
0.0000000000369783
 30
33.0
 40
44.5
  0
SPLINE
  5
BC
330
1F
100
AcDbEntity
  8
DEFAULT
100
AcDbSpline
210
0.0
220
0.0
230
1.0
 70
    15
 71
     2
 72
    12
 73
     9
 74
     0
 42
0.0000000001
 43
0.0000000001
 40
0.0
 40
0.0
 40
0.0
 40
69.9004365423729
 40
69.9004365423729
 40
139.8008730847458
 40
139.8008730847458
 40
209.7013096271187
 40
209.7013096271187
 40
279.6017461694916
 40
279.6017461694916
 40
279.6017461694916
 10
88.6
 20
0.0000000000369783
 30
33.0
 41
1.0
 10
88.60000000000001
 20
44.10000000003697
 30
33.0
 41
0.7071067811865476
 10
44.5
 20
44.10000000003699
 30
33.0
 41
1.0
 10
0.4000000000000046
 20
44.10000000003698
 30
33.0
 41
0.7071067811865476
 10
0.4000000000000057
 20
0.0000000000369854
 30
33.0
 41
1.0
 10
0.4000000000000046
 20
-44.09999999996302
 30
33.0
 41
0.7071067811865476
 10
44.5
 20
-44.09999999996302
 30
33.0
 41
1.0
 10
88.60000000000001
 20
-44.09999999996302
 30
33.0
 41
0.7071067811865476
 10
88.6
 20
0.0000000000369783
 30
33.0
 41
1.0
  0
CIRCLE
  5
BD
330
1F
100
AcDbEntity
  8
DEFAULT
100
AcDbCircle
 10
44.5
 20
-0.0000000000000054
 30
0.0
 40
44.5
  0
LINE
  5
BE
330
1F
100
AcDbEntity
  8
DEFAULT
100
AcDbLine
 10
89.0
 20
-0.0000000000000054
 30
0.0
 11
89.0
 21
-0.0000000000000054
 31
4.0
  0
CIRCLE
  5
BF
330
1F
100
AcDbEntity
  8
DEFAULT
100
AcDbCircle
 10
44.5
 20
-0.0000000000000054
 30
4.0
 40
44.5
  0
SPLINE
  5
C0
330
1F
100
AcDbEntity
  8
DEFAULT
100
AcDbSpline
210
0.0
220
0.0
230
1.0
 70
    15
 71
     2
 72
    12
 73
     9
 74
     0
 42
0.0000000001
 43
0.0000000001
 40
0.0
 40
0.0
 40
0.0
 40
69.2651198263328
 40
69.2651198263328
 40
138.5302396526656
 40
138.5302396526656
 40
207.7953594789984
 40
207.7953594789984
 40
277.0604793053312
 40
277.0604793053312
 40
277.0604793053312
 10
88.6
 20
0.0000000000369747
 30
0.0
 41
1.0
 10
88.6
 20
44.10000000003697
 30
0.000000000000002
 41
0.7071067811865476
 10
44.5
 20
44.10000000003699
 30
0.0
 41
1.0
 10
0.4000000000000046
 20
44.10000000003698
 30
0.000000000000002
 41
0.7071067811865476
 10
0.4000000000000057
 20
0.0000000000369854
 30
0.0
 41
1.0
 10
0.4000000000000046
 20
-44.09999999996302
 30
0.000000000000002
 41
0.7071067811865476
 10
44.5
 20
-44.09999999996302
 30
0.0
 41
1.0
 10
88.6
 20
-44.09999999996302
 30
0.000000000000002
 41
0.7071067811865476
 10
88.6
 20
0.0000000000369747
 30
0.0
 41
1.0
  0
SPLINE
  5
C1
330
1F
100
AcDbEntity
  8
DEFAULT
100
AcDbSpline
210
0.0
220
0.0
230
1.0
 70
    15
 71
     2
 72
    12
 73
     9
 74
     0
 42
0.0000000001
 43
0.0000000001
 40
0.0
 40
0.0
 40
0.0
 40
69.26511982633276
 40
69.26511982633276
 40
138.5302396526655
 40
138.5302396526655
 40
207.7953594789983
 40
207.7953594789983
 40
277.0604793053311
 40
277.0604793053311
 40
277.0604793053311
 10
88.6
 20
0.0000000000369747
 30
4.0
 41
1.0
 10
88.6
 20
44.10000000003697
 30
3.999999999999999
 41
0.7071067811865476
 10
44.5
 20
44.10000000003699
 30
4.0
 41
1.0
 10
0.4000000000000046
 20
44.10000000003698
 30
3.999999999999999
 41
0.7071067811865476
 10
0.4000000000000057
 20
0.0000000000369854
 30
4.0
 41
1.0
 10
0.4000000000000046
 20
-44.09999999996302
 30
3.999999999999999
 41
0.7071067811865476
 10
44.5
 20
-44.09999999996302
 30
4.0
 41
1.0
 10
88.6
 20
-44.09999999996302
 30
3.999999999999999
 41
0.7071067811865476
 10
88.6
 20
0.0000000000369747
 30
4.0
 41
1.0
  0
LINE
  5
C2
330
1F
100
AcDbEntity
  8
DEFAULT
100
AcDbLine
 10
88.6
 20
0.0000000000369747
 30
0.0
 11
88.6
 21
0.0000000000369747
 31
4.0
  0
LINE
  5
C3
330
1F
100
AcDbEntity
  8
DEFAULT
100
AcDbLine
 10
0.0
 20
-0.000000000000009
 30
0.0
 11
0.4000000344487376
 21
-0.000000000000009
 31
0.0
  0
LINE
  5
C4
330
1F
100
AcDbEntity
  8
DEFAULT
100
AcDbLine
 10
88.6
 20
-0.000000000000009
 30
0.0
 11
89.0
 21
-0.000000000000009
 31
0.0
  0
LINE
  5
C5
330
1F
100
AcDbEntity
  8
DEFAULT
100
AcDbLine
 10
44.5
 20
-44.50000000000001
 30
0.0
 11
44.5
 21
-44.09999886225356
 31
0.0
  0
LINE
  5
C6
330
1F
100
AcDbEntity
  8
DEFAULT
100
AcDbLine
 10
44.5
 20
44.09999883363591
 30
0.0
 11
44.5
 21
44.49999999999999
 31
0.0
  0
CIRCLE
  5
C7
330
1F
100
AcDbEntity
  8
DEFAULT
100
AcDbCircle
 10
44.5
 20
-0.0000000000000054
 30
2.0
 40
44.5
  0
LINE
  5
C8
330
1F
100
AcDbEntity
  8
DEFAULT
100
AcDbLine
 10
44.5
 20
-44.50000000000001
 30
0.0
 11
44.5
 21
-44.50000000000001
 31
4.0
  0
LINE
  5
C9
330
1F
100
AcDbEntity
  8
DEFAULT
100
AcDbLine
 10
0.0
 20
0.0
 30
0.0
 11
0.0
 21
0.0
 31
4.0
  0
LINE
  5
CA
330
1F
100
AcDbEntity
  8
DEFAULT
100
AcDbLine
 10
44.5
 20
44.49999999999999
 30
0.0
 11
44.5
 21
44.49999999999999
 31
4.0
  0
LINE
  5
CB
330
1F
100
AcDbEntity
  8
DEFAULT
100
AcDbLine
 10
0.0
 20
-0.000000000000009
 30
4.0
 11
0.4000000344487233
 21
-0.000000000000009
 31
4.0
  0
LINE
  5
CC
330
1F
100
AcDbEntity
  8
DEFAULT
100
AcDbLine
 10
88.6
 20
-0.000000000000009
 30
4.0
 11
89.0
 21
-0.000000000000009
 31
4.0
  0
LINE
  5
CD
330
1F
100
AcDbEntity
  8
DEFAULT
100
AcDbLine
 10
44.5
 20
-44.50000000000001
 30
4.0
 11
44.5
 21
-44.09999886225354
 31
4.0
  0
LINE
  5
CE
330
1F
100
AcDbEntity
  8
DEFAULT
100
AcDbLine
 10
44.5
 20
44.09999883363592
 30
4.0
 11
44.5
 21
44.49999999999999
 31
4.0
  0
SPLINE
  5
CF
330
1F
100
AcDbEntity
  8
DEFAULT
100
AcDbSpline
210
0.0
220
0.0
230
1.0
 70
    12
 71
     2
 72
     6
 73
     3
 74
     0
 42
0.0000000001
 43
0.0000000001
 40
-279.6017461694916
 40
-279.6017461694916
 40
-279.6017461694916
 40
-275.5973840647146
 40
-275.5973840647146
 40
-275.5973840647146
 10
88.6
 20
0.0000000000369783
 30
3.999999999999993
 41
1.0
 10
88.60000000000001
 20
-1.816878326419865
 30
3.999999999999993
 41
0.9832211275897859
 10
88.4505463367101
 20
-3.627599303179633
 30
3.999999999999993
 41
0.9683646660875386
  0
SPLINE
  5
D0
330
1F
100
AcDbEntity
  8
DEFAULT
100
AcDbSpline
210
0.0
220
0.0
230
1.0
 70
    12
 71
     2
 72
     6
 73
     3
 74
     0
 42
0.0000000001
 43
0.0000000001
 40
-259.9879560658987
 40
-259.9879560658987
 40
-259.9879560658987
 40
-256.2681046571456
 40
-256.2681046571456
 40
-256.2681046571456
 10
84.6621841979446
 20
-18.21562407520051
 30
3.999999999999994
 41
0.8817520191004049
 10
83.8787362101829
 20
-19.94298638044085
 30
3.999999999999993
 41
0.8749124403646727
 10
82.949869150311
 20
-21.5967025798469
 30
3.999999999999993
 41
0.869731801788759
  0
SPLINE
  5
D1
330
1F
100
AcDbEntity
  8
DEFAULT
100
AcDbSpline
210
0.0
220
0.0
230
1.0
 70
    12
 71
     2
 72
     6
 73
     3
 74
     0
 42
0.0000000001
 43
0.0000000001
 40
-225.9103001298479
 40
-225.9103001298479
 40
-225.9103001298479
 40
-223.021978395156
 40
-223.021978395156
 40
-223.021978395156
 10
59.55009982791572
 20
-41.4524365407717
 30
3.999999999999992
 41
0.8956624571228792
 10
58.20757920940473
 20
-41.93986432586063
 30
3.999999999999992
 41
0.9021521350451416
 10
56.83633245164127
 20
-42.33940129051722
 30
3.999999999999993
 41
0.9096419757115743
  0
SPLINE
  5
D2
330
1F
100
AcDbEntity
  8
DEFAULT
100
AcDbSpline
210
0.0
220
0.0
230
1.0
 70
    12
 71
     2
 72
     6
 73
     3
 74
     0
 42
0.0000000001
 43
0.0000000001
 40
-212.9927260999804
 40
-212.9927260999804
 40
-212.9927260999804
 40
-210.3939066850678
 40
-210.3939066850678
 40
-210.3939066850678
 10
47.47435682854302
 20
-43.99958183270887
 30
3.999999999999992
 41
0.9737157602855626
 10
46.29832192347614
 20
-44.07908139394988
 30
3.999999999999992
 41
0.983579693269746
 10
45.11971939923774
 20
-44.09564545239073
 30
3.999999999999993
 41
0.9942533404278894
  0
SPLINE
  5
D3
330
1F
100
AcDbEntity
  8
DEFAULT
100
AcDbSpline
210
0.0
220
0.0
230
1.0
 70
    12
 71
     2
 72
     6
 73
     3
 74
     0
 42
0.0000000001
 43
0.0000000001
 40
-206.693719387768
 40
-206.693719387768
 40
-206.693719387768
 40
-202.6193621722431
 40
-202.6193621722431
 40
-202.6193621722431
 10
41.78488583251419
 20
-44.016339637165
 30
3.999999999999993
 41
0.975879968044123
 10
39.8956696910646
 20
-43.89980478775745
 30
3.999999999999993
 41
0.9602769258338641
 10
38.02338649842402
 20
-43.62182340925213
 30
3.999999999999993
 41
0.9466640882977526
  0
SPLINE
  5
D4
330
1F
100
AcDbEntity
  8
DEFAULT
100
AcDbSpline
210
0.0
220
0.0
230
1.0
 70
    12
 71
     2
 72
     6
 73
     3
 74
     0
 42
0.0000000001
 43
0.0000000001
 40
-200.6253575851801
 40
-200.6253575851801
 40
-200.6253575851801
 40
-195.7472941274468
 40
-195.7472941274468
 40
-195.7472941274468
 10
36.15807860087676
 20
-43.30383755936241
 30
3.999999999999993
 41
0.9338164336500689
 10
33.8320633090464
 20
-42.85576094927002
 30
3.999999999999993
 41
0.9186844792258213
 10
31.56742868012908
 20
-42.16110291552314
 30
3.999999999999993
 41
0.9064053451778892
  0
SPLINE
  5
D5
330
1F
100
AcDbEntity
  8
DEFAULT
100
AcDbSpline
210
0.0
220
0.0
230
1.0
 70
    12
 71
     2
 72
     6
 73
     3
 74
     0
 42
0.0000000001
 43
0.0000000001
 40
-185.4148549850927
 40
-185.4148549850927
 40
-185.4148549850927
 40
-181.745634743134
 40
-181.745634743134
 40
-181.745634743134
 10
22.05519946233447
 20
-37.96104488579841
 30
3.999999999999993
 41
0.8671866769405642
 10
20.42154532434697
 20
-36.99513255685871
 30
3.999999999999992
 41
0.8624956942847685
 10
18.87691351495376
 20
-35.8924426443393
 30
3.999999999999992
 41
0.8594187992169848
  0
SPLINE
  5
D6
330
1F
100
AcDbEntity
  8
DEFAULT
100
AcDbSpline
210
0.0
220
0.0
230
1.0
 70
    12
 71
     2
 72
     6
 73
     3
 74
     0
 42
0.0000000001
 43
0.0000000001
 40
-157.880781848134
 40
-157.880781848134
 40
-157.880781848134
 40
-154.0580591187082
 40
-154.0580591187082
 40
-154.0580591187082
 10
3.723666521146111
 20
-16.79585151220553
 30
3.999999999999993
 41
0.8876746959386467
 10
2.99829626414804
 20
-15.03482501864336
 30
3.999999999999992
 41
0.8954064029023595
 10
2.427452192320073
 20
-13.21781831353075
 30
3.999999999999992
 41
0.9048900736894854
  0
SPLINE
  5
D7
330
1F
100
AcDbEntity
  8
DEFAULT
100
AcDbSpline
210
0.0
220
0.0
230
1.0
 70
    12
 71
     2
 72
     6
 73
     3
 74
     0
 42
0.0000000001
 43
0.0000000001
 40
-150.1515195698803
 40
-150.1515195698803
 40
-150.1515195698803
 40
-144.0948282097657
 40
-144.0948282097657
 40
-144.0948282097657
 10
1.444129844532968
 20
-9.539499208808463
 30
3.999999999999992
 41
0.9261029252170292
 10
0.8249596521476157
 20
-6.744917352482087
 30
3.999999999999992
 41
0.9439654369451881
 10
0.5722325142923336
 20
-3.893744177692708
 30
3.999999999999992
 41
0.9662259000439976
  0
SPLINE
  5
D8
330
1F
100
AcDbEntity
  8
DEFAULT
100
AcDbSpline
210
0.0
220
0.0
230
1.0
 70
    12
 71
     2
 72
     8
 73
     5
 74
     0
 42
0.0000000001
 43
0.0000000001
 40
-139.8962715308485
 40
-139.8962715308485
 40
-139.8962715308485
 40
-139.8008730847458
 40
-139.8008730847458
 40
-135.7259595287863
 40
-135.7259595287863
 40
-135.7259595287863
 10
0.4000822069023635
 20
-0.0851507018390097
 30
3.999999999999993
 41
0.9992016237563538
 10
0.4000000000000056
 20
-0.0425753905834495
 30
3.999999999999992
 41
0.9996002663312141
 10
0.4000000000000057
 20
0.0000000000369854
 30
3.999999999999993
 41
1.0
 10
0.4000000000000056
 20
1.849445333510483
 30
3.999999999999993
 41
0.9829255065228663
 10
0.5548500166210788
 20
3.692396638851823
 30
3.999999999999993
 41
0.9678417612691413
  0
SPLINE
  5
D9
330
1F
100
AcDbEntity
  8
DEFAULT
100
AcDbSpline
210
0.0
220
0.0
230
1.0
 70
    12
 71
     2
 72
     6
 73
     3
 74
     0
 42
0.0000000001
 43
0.0000000001
 40
-131.6824777395003
 40
-131.6824777395003
 40
-131.6824777395003
 40
-127.7459565528953
 40
-127.7459565528953
 40
-127.7459565528953
 10
1.03292572633712
 20
7.444693015056081
 30
3.999999999999993
 41
0.9398671225874677
 10
1.352660024144265
 20
9.311514715102366
 30
3.999999999999993
 41
0.9272039563304482
 10
1.831274074663397
 20
11.14404899079917
 30
3.999999999999993
 41
0.9163986147317774
  0
SPLINE
  5
DA
330
1F
100
AcDbEntity
  8
DEFAULT
100
AcDbSpline
210
0.0
220
0.0
230
1.0
 70
    12
 71
     2
 72
     6
 73
     3
 74
     0
 42
0.0000000001
 43
0.0000000001
 40
-125.0655031165697
 40
-125.0655031165697
 40
-125.0655031165697
 40
-118.257071997441
 40
-118.257071997441
 40
-118.257071997441
 10
2.571361346852851
 20
13.66745260444775
 30
3.999999999999993
 41
0.9025448649910085
 10
3.633752071109368
 20
16.92662591750766
 30
3.999999999999992
 41
0.8860443662555387
 10
5.18701897788922
 20
19.98248040551111
 30
3.999999999999992
 41
0.875101292804086
  0
SPLINE
  5
DB
330
1F
100
AcDbEntity
  8
DEFAULT
100
AcDbSpline
210
0.0
220
0.0
230
1.0
 70
    12
 71
     2
 72
     6
 73
     3
 74
     0
 42
0.0000000001
 43
0.0000000001
 40
-107.2584691688488
 40
-107.2584691688488
 40
-107.2584691688488
 40
-103.6249884142166
 40
-103.6249884142166
 40
-103.6249884142166
 10
11.58906697698104
 20
29.35439468898193
 30
3.999999999999992
 41
0.8542484557774107
 10
12.85365911171668
 20
30.7722030781086
 30
3.999999999999992
 41
0.853199576753898
 10
14.23549856827742
 20
32.07600276050047
 30
3.999999999999992
 41
0.8537334948997346
  0
SPLINE
  5
DC
330
1F
100
AcDbEntity
  8
DEFAULT
100
AcDbSpline
210
0.0
220
0.0
230
1.0
 70
    12
 71
     2
 72
     6
 73
     3
 74
     0
 42
0.0000000001
 43
0.0000000001
 40
-98.15882045517009
 40
-98.15882045517009
 40
-98.15882045517009
 40
-86.99715419703068
 40
-86.99715419703068
 40
-86.99715419703068
 10
18.62171684175962
 20
35.70888489976372
 30
3.999999999999992
 41
0.8589221000477608
 10
23.26742932359617
 20
39.07563979604048
 30
3.999999999999993
 41
0.8678768559425745
 10
28.61993985120484
 20
41.14162964290173
 30
3.999999999999992
 41
0.8917677252209646
  0
SPLINE
  5
DD
330
1F
100
AcDbEntity
  8
DEFAULT
100
AcDbSpline
210
0.0
220
0.0
230
1.0
 70
    12
 71
     2
 72
     6
 73
     3
 74
     0
 42
0.0000000001
 43
0.0000000001
 40
-68.90608908956641
 40
-68.90608908956641
 40
-68.90608908956641
 40
-59.78365725361974
 40
-59.78365725361974
 40
-59.78365725361974
 10
45.39080123356016
 20
44.0910021791924
 30
3.999999999999992
 41
0.9917856102827948
 10
49.652886142811
 20
44.00489230853735
 30
3.999999999999992
 41
0.9546487626256088
 10
53.81956289984358
 20
43.10401080362531
 30
3.999999999999992
 41
0.9274889337633947
  0
SPLINE
  5
DE
330
1F
100
AcDbEntity
  8
DEFAULT
100
AcDbSpline
210
0.0
220
0.0
230
1.0
 70
    12
 71
     2
 72
     6
 73
     3
 74
     0
 42
0.0000000001
 43
0.0000000001
 40
-26.41705604292352
 40
-26.41705604292352
 40
-26.41705604292352
 40
-20.85428107616762
 40
-20.85428107616762
 40
-20.85428107616762
 10
81.29537750110526
 20
24.3086444408765
 30
3.999999999999993
 41
0.8622830950524166
 10
82.87135725113386
 20
21.92312393283137
 30
3.999999999999993
 41
0.8679739960494299
 10
84.12612235436502
 20
19.35408037490608
 30
3.999999999999993
 41
0.8773747997481192
  0
LINE
  5
DF
330
1F
100
AcDbEntity
  8
DEFAULT
100
AcDbLine
 10
44.5
 20
-44.09999999996302
 30
-0.0000000000000142
 11
44.5
 21
-44.09999999996302
 31
3.999999999999985
  0
LINE
  5
E0
330
1F
100
AcDbEntity
  8
DEFAULT
100
AcDbLine
 10
0.4000000000000057
 20
0.0000000000369837
 30
-0.000000000000008
 11
0.4000000000000057
 21
0.0000000000369837
 31
3.999999999999993
  0
LINE
  5
E1
330
1F
100
AcDbEntity
  8
DEFAULT
100
AcDbLine
 10
44.5
 20
44.10000000003699
 30
-0.0000000000000098
 11
44.5
 21
44.10000000003699
 31
3.999999999999993
  0
POLYLINE
  5
E2
330
1F
100
AcDbEntity
  8
DEFAULT
100
AcDb3dPolyline
 66
     1
 10
0.0
 20
0.0
 30
0.0
 70
     8
  0
VERTEX
  5
E4
330
E2
100
AcDbEntity
  8
DEFAULT
100
AcDbVertex
100
AcDb3dPolylineVertex
 10
44.5
 20
-44.49999999996302
 30
33.0
 70
    32
  0
VERTEX
  5
E5
330
E2
100
AcDbEntity
  8
DEFAULT
100
AcDbVertex
100
AcDb3dPolylineVertex
 10
46.5
 20
-44.49999999996302
 30
33.0
 70
    32
  0
VERTEX
  5
E6
330
E2
100
AcDbEntity
  8
DEFAULT
100
AcDbVertex
100
AcDb3dPolylineVertex
 10
42.5
 20
-44.49999999996302
 30
33.0
 70
    32
  0
SEQEND
  5
E3
330
E2
100
AcDbEntity
  8
DEFAULT
  0
SPLINE
  5
E7
330
1F
100
AcDbEntity
  8
DEFAULT
100
AcDbSpline
210
0.0
220
0.0
230
1.0
 70
    24
 71
     3
 72
     8
 73
     4
 74
     0
 42
0.0000000001
 43
0.0000000001
 40
-88.95503346079066
 40
-88.95503346079066
 40
-88.95503346079066
 40
-88.95503346079066
 40
-88.55462518283427
 40
-88.55462518283427
 40
-88.55462518283427
 40
-88.55462518283427
 10
46.5
 20
-44.45503346075349
 30
33.0
 10
46.5
 20
-44.32156403476803
 30
33.0
 10
46.5
 20
-44.18809460878256
 30
33.0
 10
46.50000000000003
 20
-44.05462518279711
 30
33.0
  0
SPLINE
  5
E8
330
1F
100
AcDbEntity
  8
DEFAULT
100
AcDbSpline
210
0.0
220
0.0
230
1.0
 70
    24
 71
     3
 72
     8
 73
     4
 74
     0
 42
0.0000000001
 43
0.0000000001
 40
0.0
 40
0.0
 40
0.0
 40
0.0
 40
33.00000000000001
 40
33.00000000000001
 40
33.00000000000001
 40
33.00000000000001
 10
46.5
 20
-44.45503346075348
 30
0.0
 10
46.5
 20
-44.45503346075348
 30
11.00000000000001
 10
46.5
 20
-44.45503346075348
 30
22.0
 10
46.5
 20
-44.45503346075349
 30
33.0
  0
SPLINE
  5
E9
330
1F
100
AcDbEntity
  8
DEFAULT
100
AcDbSpline
210
0.0
220
0.0
230
1.0
 70
    24
 71
     3
 72
     8
 73
     4
 74
     0
 42
0.0000000001
 43
0.0000000001
 40
-33.00000000000001
 40
-33.00000000000001
 40
-33.00000000000001
 40
-33.00000000000001
 40
0.0
 40
0.0
 40
0.0
 40
0.0
 10
46.50000000000003
 20
-44.05462518279711
 30
33.0
 10
46.5
 20
-44.05462518279711
 30
22.0
 10
46.5
 20
-44.05462518279712
 30
11.0
 10
46.5
 20
-44.05462518279712
 30
0.0
  0
SPLINE
  5
EA
330
1F
100
AcDbEntity
  8
DEFAULT
100
AcDbSpline
210
0.0
220
0.0
230
1.0
 70
    24
 71
     3
 72
     8
 73
     4
 74
     0
 42
0.0000000001
 43
0.0000000001
 40
-88.95503346079066
 40
-88.95503346079066
 40
-88.95503346079066
 40
-88.95503346079066
 40
-88.55462518283427
 40
-88.55462518283427
 40
-88.55462518283427
 40
-88.55462518283427
 10
46.5
 20
-44.45503346075348
 30
0.0
 10
46.5
 20
-44.32156403476803
 30
0.0
 10
46.5
 20
-44.18809460878257
 30
0.0
 10
46.5
 20
-44.05462518279712
 30
0.0
  0
SPLINE
  5
EB
330
1F
100
AcDbEntity
  8
DEFAULT
100
AcDbSpline
210
0.0
220
0.0
230
1.0
 70
    12
 71
     2
 72
     8
 73
     5
 74
     0
 42
0.0000000001
 43
0.0000000001
 40
-211.9231741914478
 40
-211.9231741914478
 40
-211.9231741914478
 40
-209.7013096271187
 40
-209.7013096271187
 40
-207.4794450627897
 40
-207.4794450627897
 40
-207.4794450627897
 10
46.50000000000003
 20
-44.05462518279712
 30
33.0
 41
0.9819719686102738
 10
45.50051471850823
 20
-44.09999999996302
 30
32.99999999999999
 41
0.9906900572270475
 10
44.5
 20
-44.09999999996302
 30
32.99999999999999
 41
1.0
 10
43.49948528149178
 20
-44.09999999996302
 30
32.99999999999999
 41
0.9906900572270477
 10
42.49999999999999
 20
-44.05462518279711
 30
32.99999999999999
 41
0.9819719686102741
  0
SPLINE
  5
EC
330
1F
100
AcDbEntity
  8
DEFAULT
100
AcDbSpline
210
0.0
220
0.0
230
1.0
 70
    12
 71
     2
 72
     8
 73
     5
 74
     0
 42
0.0000000001
 43
0.0000000001
 40
-211.9231741914477
 40
-211.9231741914477
 40
-211.9231741914477
 40
-209.7013096271187
 40
-209.7013096271187
 40
-207.4794450627897
 40
-207.4794450627897
 40
-207.4794450627897
 10
46.49999999999999
 20
-44.05462518279712
 30
-0.0000000000000037
 41
0.9819719686102742
 10
45.50051471850819
 20
-44.09999999996302
 30
-0.0000000000000009
 41
0.9906900572270478
 10
44.5
 20
-44.09999999996302
 30
0.0
 41
1.0
 10
43.49948528149178
 20
-44.09999999996302
 30
-0.0000000000000046
 41
0.9906900572270477
 10
42.50000000000001
 20
-44.05462518279712
 30
-0.0000000000000002
 41
0.9819719686102741
  0
SPLINE
  5
ED
330
1F
100
AcDbEntity
  8
DEFAULT
100
AcDbSpline
210
0.0
220
0.0
230
1.0
 70
    24
 71
     3
 72
     8
 73
     4
 74
     0
 42
0.0000000001
 43
0.0000000001
 40
-88.95503346079056
 40
-88.95503346079056
 40
-88.95503346079056
 40
-88.95503346079056
 40
-88.55462518283419
 40
-88.55462518283419
 40
-88.55462518283419
 40
-88.55462518283419
 10
42.5
 20
-44.45503346075348
 30
33.0
 10
42.5
 20
-44.32156403476802
 30
33.0
 10
42.5
 20
-44.18809460878256
 30
33.0
 10
42.5
 20
-44.05462518279711
 30
32.99999999999999
  0
SPLINE
  5
EE
330
1F
100
AcDbEntity
  8
DEFAULT
100
AcDbSpline
210
0.0
220
0.0
230
1.0
 70
    24
 71
     3
 72
     8
 73
     4
 74
     0
 42
0.0000000001
 43
0.0000000001
 40
0.0
 40
0.0
 40
0.0
 40
0.0
 40
33.00000000000001
 40
33.00000000000001
 40
33.00000000000001
 40
33.00000000000001
 10
42.5
 20
-44.45503346075348
 30
0.0
 10
42.5
 20
-44.45503346075349
 30
11.00000000000001
 10
42.5
 20
-44.45503346075349
 30
22.0
 10
42.5
 20
-44.45503346075348
 30
33.0
  0
SPLINE
  5
EF
330
1F
100
AcDbEntity
  8
DEFAULT
100
AcDbSpline
210
0.0
220
0.0
230
1.0
 70
    24
 71
     3
 72
     8
 73
     4
 74
     0
 42
0.0000000001
 43
0.0000000001
 40
-33.00000000000001
 40
-33.00000000000001
 40
-33.00000000000001
 40
-33.00000000000001
 40
0.0
 40
0.0
 40
0.0
 40
0.0
 10
42.5
 20
-44.05462518279711
 30
32.99999999999999
 10
42.5
 20
-44.05462518279711
 30
22.0
 10
42.5
 20
-44.05462518279712
 30
11.00000000000001
 10
42.5
 20
-44.05462518279712
 30
0.0
  0
SPLINE
  5
F0
330
1F
100
AcDbEntity
  8
DEFAULT
100
AcDbSpline
210
0.0
220
0.0
230
1.0
 70
    24
 71
     3
 72
     8
 73
     4
 74
     0
 42
0.0000000001
 43
0.0000000001
 40
-88.95503346079057
 40
-88.95503346079057
 40
-88.95503346079057
 40
-88.95503346079057
 40
-88.55462518283419
 40
-88.55462518283419
 40
-88.55462518283419
 40
-88.55462518283419
 10
42.5
 20
-44.45503346075348
 30
0.0
 10
42.5
 20
-44.32156403476803
 30
0.0
 10
42.5
 20
-44.18809460878257
 30
0.0
 10
42.5
 20
-44.05462518279712
 30
0.0
  0
ARC
  5
F1
330
1F
100
AcDbEntity
  8
DEFAULT
100
AcDbCircle
 10
44.5
 20
0.0000000000399803
 30
33.0
 40
44.50000000000299
100
AcDbArc
 50
267.4240410723478
 51
272.5759589276522
  0
ARC
  5
F2
330
1F
100
AcDbEntity
  8
DEFAULT
100
AcDbCircle
 10
44.5
 20
0.0000000000399874
 30
-0.0000000000001776
 40
44.500000000003
100
AcDbArc
 50
267.4240410723478
 51
272.5759589276522
  0
SPLINE
  5
F3
330
1F
100
AcDbEntity
  8
DEFAULT
100
AcDbSpline
210
0.0
220
0.0
230
1.0
 70
    24
 71
     2
 72
     6
 73
     3
 74
     0
 42
0.0000000001
 43
0.0000000001
 40
1.594315527808538
 40
1.594315527808538
 40
1.594315527808538
 40
1.99472380576491
 40
1.99472380576491
 40
1.99472380576491
 10
46.5
 20
-44.45503346075348
 30
10.00525411360243
 10
46.5
 20
-44.25482932177529
 30
10.00525411360243
 10
46.5
 20
-44.05462518279711
 30
10.00525411360243
  0
LINE
  5
F4
330
1F
100
AcDbEntity
  8
DEFAULT
100
AcDbLine
 10
44.5
 20
-44.49999999996303
 30
33.0
 11
44.5
 21
-44.09999999996302
 31
33.0
  0
ARC
  5
F5
330
1F
100
AcDbEntity
  8
DEFAULT
100
AcDbCircle
 10
44.5
 20
0.0000000000369783
 30
16.5
 40
44.5
100
AcDbArc
 50
267.4240410723477
 51
272.5759589276524
  0
LINE
  5
F6
330
1F
100
AcDbEntity
  8
DEFAULT
100
AcDbLine
 10
44.5
 20
-44.49999999996302
 30
33.0
 11
44.5
 21
-44.49999999996302
 31
0.0
  0
SPLINE
  5
F7
330
1F
100
AcDbEntity
  8
DEFAULT
100
AcDbSpline
210
0.0
220
0.0
230
1.0
 70
    12
 71
     2
 72
     8
 73
     5
 74
     0
 42
0.0000000001
 43
0.0000000001
 40
207.4794450627897
 40
207.4794450627897
 40
207.4794450627897
 40
209.7013096271187
 40
209.7013096271187
 40
211.9231741914477
 40
211.9231741914477
 40
211.9231741914477
 10
42.49999999999999
 20
-44.05462518279711
 30
16.5
 41
0.9819719686102741
 10
43.49948528149178
 20
-44.09999999996301
 30
16.5
 41
0.9906900572270477
 10
44.5
 20
-44.09999999996302
 30
16.5
 41
1.0
 10
45.50051471850821
 20
-44.09999999996301
 30
16.5
 41
0.9906900572270477
 10
46.50000000000002
 20
-44.05462518279711
 30
16.5
 41
0.9819719686102741
  0
LINE
  5
F8
330
1F
100
AcDbEntity
  8
DEFAULT
100
AcDbLine
 10
44.5
 20
-44.09999999996302
 30
33.0
 11
44.5
 21
-44.09999999996302
 31
0.0
  0
LINE
  5
F9
330
1F
100
AcDbEntity
  8
DEFAULT
100
AcDbLine
 10
44.5
 20
-44.49999999996302
 30
0.0
 11
44.5
 21
-44.09999999996302
 31
0.0
  0
SPLINE
  5
FA
330
1F
100
AcDbEntity
  8
DEFAULT
100
AcDbSpline
210
0.0
220
0.0
230
1.0
 70
    24
 71
     2
 72
     6
 73
     3
 74
     0
 42
0.0000000001
 43
0.0000000001
 40
1.59431552780854
 40
1.59431552780854
 40
1.59431552780854
 40
1.994723805764908
 40
1.994723805764908
 40
1.994723805764908
 10
42.49999999999999
 20
-44.45503346075348
 30
10.00525411360243
 10
42.5
 20
-44.2548293217753
 30
10.00525411360243
 10
42.5
 20
-44.05462518279712
 30
10.00525411360243
  0
SPLINE
  5
FB
330
1F
100
AcDbEntity
  8
DEFAULT
100
AcDbSpline
210
0.0
220
0.0
230
1.0
 70
    24
 71
     3
 72
     8
 73
     4
 74
     0
 42
0.0000000001
 43
0.0000000001
 40
-88.95503346079066
 40
-88.95503346079066
 40
-88.95503346079066
 40
-88.95503346079066
 40
-88.55462518283427
 40
-88.55462518283427
 40
-88.55462518283427
 40
-88.55462518283427
 10
81.9991883031318
 20
23.95956753800107
 30
33.0
 10
81.88360038959986
 20
23.89283282500834
 30
33.0
 10
81.76801247606792
 20
23.82609811201561
 30
33.0
 10
81.65242456253597
 20
23.75936339902291
 30
33.0
  0
SPLINE
  5
FC
330
1F
100
AcDbEntity
  8
DEFAULT
100
AcDbSpline
210
0.0
220
0.0
230
1.0
 70
    24
 71
     3
 72
     8
 73
     4
 74
     0
 42
0.0000000001
 43
0.0000000001
 40
0.0
 40
0.0
 40
0.0
 40
0.0
 40
33.00000000000001
 40
33.00000000000001
 40
33.00000000000001
 40
33.00000000000001
 10
81.9991883031318
 20
23.95956753800107
 30
0.0
 10
81.9991883031318
 20
23.95956753800107
 30
11.00000000000001
 10
81.9991883031318
 20
23.95956753800107
 30
22.0
 10
81.9991883031318
 20
23.95956753800107
 30
33.0
  0
SPLINE
  5
FD
330
1F
100
AcDbEntity
  8
DEFAULT
100
AcDbSpline
210
0.0
220
0.0
230
1.0
 70
    24
 71
     3
 72
     8
 73
     4
 74
     0
 42
0.0000000001
 43
0.0000000001
 40
-33.00000000000001
 40
-33.00000000000001
 40
-33.00000000000001
 40
-33.00000000000001
 40
0.0
 40
0.0
 40
0.0
 40
0.0
 10
81.65242456253597
 20
23.75936339902291
 30
33.0
 10
81.652424562536
 20
23.75936339902288
 30
22.0
 10
81.652424562536
 20
23.75936339902289
 30
11.0
 10
81.652424562536
 20
23.75936339902289
 30
0.0
  0
SPLINE
  5
FE
330
1F
100
AcDbEntity
  8
DEFAULT
100
AcDbSpline
210
0.0
220
0.0
230
1.0
 70
    24
 71
     3
 72
     8
 73
     4
 74
     0
 42
0.0000000001
 43
0.0000000001
 40
-88.95503346079066
 40
-88.95503346079066
 40
-88.95503346079066
 40
-88.95503346079066
 40
-88.55462518283427
 40
-88.55462518283427
 40
-88.55462518283427
 40
-88.55462518283427
 10
81.9991883031318
 20
23.95956753800107
 30
0.0
 10
81.88360038959986
 20
23.89283282500834
 30
0.0
 10
81.76801247606792
 20
23.82609811201561
 30
0.0
 10
81.652424562536
 20
23.75936339902289
 30
0.0
  0
SPLINE
  5
FF
330
1F
100
AcDbEntity
  8
DEFAULT
100
AcDbSpline
210
0.0
220
0.0
230
1.0
 70
    12
 71
     2
 72
     8
 73
     5
 74
     0
 42
0.0000000001
 43
0.0000000001
 40
-211.9231741914478
 40
-211.9231741914478
 40
-211.9231741914478
 40
-209.7013096271187
 40
-209.7013096271187
 40
-207.4794450627897
 40
-207.4794450627897
 40
-207.4794450627897
 10
81.65242456253598
 20
23.75936339902291
 30
33.0
 41
0.9819719686102738
 10
82.19146294763962
 20
22.91647116312533
 30
32.99999999999999
 41
0.9906900572270475
 10
82.69172030689374
 20
22.05000000003696
 30
32.99999999999999
 41
1.0
 10
83.19197766614784
 20
21.18352883694861
 30
32.99999999999999
 41
0.9906900572270477
 10
83.652424562536
 20
20.29526178388512
 30
32.99999999999999
 41
0.9819719686102741
  0
SPLINE
  5
100
330
1F
100
AcDbEntity
  8
DEFAULT
100
AcDbSpline
210
0.0
220
0.0
230
1.0
 70
    12
 71
     2
 72
     8
 73
     5
 74
     0
 42
0.0000000001
 43
0.0000000001
 40
-211.9231741914477
 40
-211.9231741914477
 40
-211.9231741914477
 40
-209.7013096271187
 40
-209.7013096271187
 40
-207.4794450627897
 40
-207.4794450627897
 40
-207.4794450627897
 10
81.65242456253601
 20
23.75936339902288
 30
-0.0000000000000037
 41
0.9819719686102742
 10
82.19146294763965
 20
22.91647116312529
 30
-0.0000000000000009
 41
0.9906900572270478
 10
82.69172030689376
 20
22.05000000003696
 30
0.0
 41
1.0
 10
83.19197766614785
 20
21.18352883694862
 30
-0.0000000000000046
 41
0.9906900572270477
 10
83.652424562536
 20
20.29526178388514
 30
-0.0000000000000002
 41
0.9819719686102741
  0
SPLINE
  5
101
330
1F
100
AcDbEntity
  8
DEFAULT
100
AcDbSpline
210
0.0
220
0.0
230
1.0
 70
    24
 71
     3
 72
     8
 73
     4
 74
     0
 42
0.0000000001
 43
0.0000000001
 40
-88.95503346079056
 40
-88.95503346079056
 40
-88.95503346079056
 40
-88.95503346079056
 40
-88.55462518283419
 40
-88.55462518283419
 40
-88.55462518283419
 40
-88.55462518283419
 10
83.99918830313179
 20
20.49546592286331
 30
33.0
 10
83.88360038959985
 20
20.42873120987058
 30
33.0
 10
83.76801247606792
 20
20.36199649687786
 30
33.0
 10
83.652424562536
 20
20.29526178388513
 30
32.99999999999999
  0
SPLINE
  5
102
330
1F
100
AcDbEntity
  8
DEFAULT
100
AcDbSpline
210
0.0
220
0.0
230
1.0
 70
    24
 71
     3
 72
     8
 73
     4
 74
     0
 42
0.0000000001
 43
0.0000000001
 40
0.0
 40
0.0
 40
0.0
 40
0.0
 40
33.00000000000001
 40
33.00000000000001
 40
33.00000000000001
 40
33.00000000000001
 10
83.99918830313179
 20
20.49546592286331
 30
0.0
 10
83.9991883031318
 20
20.49546592286332
 30
11.00000000000001
 10
83.9991883031318
 20
20.49546592286332
 30
22.0
 10
83.99918830313179
 20
20.49546592286331
 30
33.0
  0
SPLINE
  5
103
330
1F
100
AcDbEntity
  8
DEFAULT
100
AcDbSpline
210
0.0
220
0.0
230
1.0
 70
    24
 71
     3
 72
     8
 73
     4
 74
     0
 42
0.0000000001
 43
0.0000000001
 40
-33.00000000000001
 40
-33.00000000000001
 40
-33.00000000000001
 40
-33.00000000000001
 40
0.0
 40
0.0
 40
0.0
 40
0.0
 10
83.652424562536
 20
20.29526178388513
 30
32.99999999999999
 10
83.652424562536
 20
20.29526178388513
 30
22.0
 10
83.652424562536
 20
20.29526178388513
 30
11.00000000000001
 10
83.652424562536
 20
20.29526178388513
 30
0.0
  0
SPLINE
  5
104
330
1F
100
AcDbEntity
  8
DEFAULT
100
AcDbSpline
210
0.0
220
0.0
230
1.0
 70
    24
 71
     3
 72
     8
 73
     4
 74
     0
 42
0.0000000001
 43
0.0000000001
 40
-88.95503346079057
 40
-88.95503346079057
 40
-88.95503346079057
 40
-88.95503346079057
 40
-88.55462518283419
 40
-88.55462518283419
 40
-88.55462518283419
 40
-88.55462518283419
 10
83.99918830313179
 20
20.49546592286331
 30
0.0
 10
83.88360038959986
 20
20.42873120987059
 30
0.0
 10
83.76801247606792
 20
20.36199649687786
 30
0.0
 10
83.652424562536
 20
20.29526178388513
 30
0.0
  0
ARC
  5
105
330
1F
100
AcDbEntity
  8
DEFAULT
100
AcDbCircle
 10
44.4999999999974
 20
0.0000000000354719
 30
33.0
 40
44.50000000000299
100
AcDbArc
 50
27.42404107234788
 51
32.57595892765216
  0
ARC
  5
106
330
1F
100
AcDbEntity
  8
DEFAULT
100
AcDbCircle
 10
44.49999999999739
 20
0.0000000000354684
 30
-0.0000000000001776
 40
44.500000000003
100
AcDbArc
 50
27.42404107234788
 51
32.57595892765215
  0
SPLINE
  5
107
330
1F
100
AcDbEntity
  8
DEFAULT
100
AcDbSpline
210
0.0
220
0.0
230
1.0
 70
    24
 71
     2
 72
     6
 73
     3
 74
     0
 42
0.0000000001
 43
0.0000000001
 40
1.594315527808538
 40
1.594315527808538
 40
1.594315527808538
 40
1.99472380576491
 40
1.99472380576491
 40
1.99472380576491
 10
81.99918830313179
 20
23.95956753800107
 30
10.00525411360243
 10
81.82580643283389
 20
23.85946546851198
 30
10.00525411360243
 10
81.65242456253598
 20
23.75936339902289
 30
10.00525411360243
  0
LINE
  5
108
330
1F
100
AcDbEntity
  8
DEFAULT
100
AcDbLine
 10
83.03813046840762
 20
22.25000000003731
 30
33.0
 11
82.69172030689384
 21
22.05000000003731
 31
33.0
  0
ARC
  5
109
330
1F
100
AcDbEntity
  8
DEFAULT
100
AcDbCircle
 10
44.5
 20
0.000000000036973
 30
16.5
 40
44.5
100
AcDbArc
 50
27.42404107234773
 51
32.57595892765238
  0
LINE
  5
10A
330
1F
100
AcDbEntity
  8
DEFAULT
100
AcDbLine
 10
83.03813046840753
 20
22.25000000003696
 30
33.0
 11
83.03813046840753
 21
22.25000000003696
 31
0.0
  0
SPLINE
  5
10B
330
1F
100
AcDbEntity
  8
DEFAULT
100
AcDbSpline
210
0.0
220
0.0
230
1.0
 70
    12
 71
     2
 72
     8
 73
     5
 74
     0
 42
0.0000000001
 43
0.0000000001
 40
207.4794450627897
 40
207.4794450627897
 40
207.4794450627897
 40
209.7013096271187
 40
209.7013096271187
 40
211.9231741914477
 40
211.9231741914477
 40
211.9231741914477
 10
83.652424562536
 20
20.29526178388512
 30
16.5
 41
0.9819719686102741
 10
83.19197766614784
 20
21.18352883694861
 30
16.5
 41
0.9906900572270477
 10
82.69172030689374
 20
22.05000000003696
 30
16.5
 41
1.0
 10
82.19146294763962
 20
22.91647116312531
 30
16.5
 41
0.9906900572270477
 10
81.65242456253598
 20
23.7593633990229
 30
16.5
 41
0.9819719686102741
  0
LINE
  5
10C
330
1F
100
AcDbEntity
  8
DEFAULT
100
AcDbLine
 10
82.69172030689374
 20
22.05000000003696
 30
33.0
 11
82.69172030689374
 21
22.05000000003696
 31
0.0
  0
LINE
  5
10D
330
1F
100
AcDbEntity
  8
DEFAULT
100
AcDbLine
 10
83.0381304684076
 20
22.25000000003731
 30
0.0
 11
82.69172030689384
 21
22.05000000003731
 31
0.0
  0
SPLINE
  5
10E
330
1F
100
AcDbEntity
  8
DEFAULT
100
AcDbSpline
210
0.0
220
0.0
230
1.0
 70
    24
 71
     2
 72
     6
 73
     3
 74
     0
 42
0.0000000001
 43
0.0000000001
 40
1.59431552780854
 40
1.59431552780854
 40
1.59431552780854
 40
1.994723805764908
 40
1.994723805764908
 40
1.994723805764908
 10
83.99918830313179
 20
20.49546592286331
 30
10.00525411360243
 10
83.82580643283389
 20
20.39536385337422
 30
10.00525411360243
 10
83.65242456253598
 20
20.29526178388513
 30
10.00525411360243
  0
SPLINE
  5
10F
330
1F
100
AcDbEntity
  8
DEFAULT
100
AcDbSpline
210
0.0
220
0.0
230
1.0
 70
    24
 71
     3
 72
     8
 73
     4
 74
     0
 42
0.0000000001
 43
0.0000000001
 40
-88.95503346079066
 40
-88.95503346079066
 40
-88.95503346079066
 40
-88.95503346079066
 40
-88.55462518283427
 40
-88.55462518283427
 40
-88.55462518283427
 40
-88.55462518283427
 10
5.000811696868219
 20
20.49546592286335
 30
33.0
 10
5.116399610400151
 20
20.42873120987062
 30
33.0
 10
5.231987523932091
 20
20.36199649687789
 30
33.0
 10
5.347575437464009
 20
20.29526178388513
 30
33.0
  0
SPLINE
  5
110
330
1F
100
AcDbEntity
  8
DEFAULT
100
AcDbSpline
210
0.0
220
0.0
230
1.0
 70
    24
 71
     3
 72
     8
 73
     4
 74
     0
 42
0.0000000001
 43
0.0000000001
 40
0.0
 40
0.0
 40
0.0
 40
0.0
 40
33.00000000000001
 40
33.00000000000001
 40
33.00000000000001
 40
33.00000000000001
 10
5.000811696868219
 20
20.49546592286335
 30
0.0
 10
5.000811696868219
 20
20.49546592286335
 30
11.00000000000001
 10
5.000811696868219
 20
20.49546592286335
 30
22.0
 10
5.000811696868219
 20
20.49546592286335
 30
33.0
  0
SPLINE
  5
111
330
1F
100
AcDbEntity
  8
DEFAULT
100
AcDbSpline
210
0.0
220
0.0
230
1.0
 70
    24
 71
     3
 72
     8
 73
     4
 74
     0
 42
0.0000000001
 43
0.0000000001
 40
-33.00000000000001
 40
-33.00000000000001
 40
-33.00000000000001
 40
-33.00000000000001
 40
0.0
 40
0.0
 40
0.0
 40
0.0
 10
5.347575437464009
 20
20.29526178388513
 30
33.0
 10
5.347575437464023
 20
20.29526178388516
 30
22.0
 10
5.347575437464016
 20
20.29526178388516
 30
11.0
 10
5.347575437464016
 20
20.29526178388516
 30
0.0
  0
SPLINE
  5
112
330
1F
100
AcDbEntity
  8
DEFAULT
100
AcDbSpline
210
0.0
220
0.0
230
1.0
 70
    24
 71
     3
 72
     8
 73
     4
 74
     0
 42
0.0000000001
 43
0.0000000001
 40
-88.95503346079066
 40
-88.95503346079066
 40
-88.95503346079066
 40
-88.95503346079066
 40
-88.55462518283427
 40
-88.55462518283427
 40
-88.55462518283427
 40
-88.55462518283427
 10
5.000811696868219
 20
20.49546592286335
 30
0.0
 10
5.116399610400151
 20
20.42873120987062
 30
0.0
 10
5.231987523932084
 20
20.36199649687789
 30
0.0
 10
5.347575437464016
 20
20.29526178388516
 30
0.0
  0
SPLINE
  5
113
330
1F
100
AcDbEntity
  8
DEFAULT
100
AcDbSpline
210
0.0
220
0.0
230
1.0
 70
    12
 71
     2
 72
     8
 73
     5
 74
     0
 42
0.0000000001
 43
0.0000000001
 40
-211.9231741914478
 40
-211.9231741914478
 40
-211.9231741914478
 40
-209.7013096271187
 40
-209.7013096271187
 40
-207.4794450627897
 40
-207.4794450627897
 40
-207.4794450627897
 10
5.34757543746401
 20
20.29526178388515
 30
33.0
 41
0.9819719686102738
 10
5.808022333852156
 20
21.18352883694863
 30
32.99999999999999
 41
0.9906900572270475
 10
6.308279693106272
 20
22.05000000003699
 30
32.99999999999999
 41
1.0
 10
6.808537052360379
 20
22.91647116312534
 30
32.99999999999999
 41
0.9906900572270477
 10
7.34757543746403
 20
23.75936339902292
 30
32.99999999999999
 41
0.9819719686102741
  0
SPLINE
  5
114
330
1F
100
AcDbEntity
  8
DEFAULT
100
AcDbSpline
210
0.0
220
0.0
230
1.0
 70
    12
 71
     2
 72
     8
 73
     5
 74
     0
 42
0.0000000001
 43
0.0000000001
 40
-211.9231741914477
 40
-211.9231741914477
 40
-211.9231741914477
 40
-209.7013096271187
 40
-209.7013096271187
 40
-207.4794450627897
 40
-207.4794450627897
 40
-207.4794450627897
 10
5.34757543746402
 20
20.29526178388518
 30
-0.0000000000000037
 41
0.9819719686102742
 10
5.808022333852177
 20
21.18352883694867
 30
-0.0000000000000009
 41
0.9906900572270478
 10
6.308279693106265
 20
22.050000000037
 30
0.0
 41
1.0
 10
6.808537052360371
 20
22.91647116312534
 30
-0.0000000000000046
 41
0.9906900572270477
 10
7.347575437464016
 20
23.75936339902291
 30
-0.0000000000000002
 41
0.9819719686102741
  0
SPLINE
  5
115
330
1F
100
AcDbEntity
  8
DEFAULT
100
AcDbSpline
210
0.0
220
0.0
230
1.0
 70
    24
 71
     3
 72
     8
 73
     4
 74
     0
 42
0.0000000001
 43
0.0000000001
 40
-88.95503346079056
 40
-88.95503346079056
 40
-88.95503346079056
 40
-88.95503346079056
 40
-88.55462518283419
 40
-88.55462518283419
 40
-88.55462518283419
 40
-88.55462518283419
 10
7.000811696868233
 20
23.9595675380011
 30
33.0
 10
7.116399610400165
 20
23.89283282500837
 30
33.0
 10
7.231987523932091
 20
23.82609811201564
 30
33.0
 10
7.347575437464023
 20
23.75936339902291
 30
32.99999999999999
  0
SPLINE
  5
116
330
1F
100
AcDbEntity
  8
DEFAULT
100
AcDbSpline
210
0.0
220
0.0
230
1.0
 70
    24
 71
     3
 72
     8
 73
     4
 74
     0
 42
0.0000000001
 43
0.0000000001
 40
0.0
 40
0.0
 40
0.0
 40
0.0
 40
33.00000000000001
 40
33.00000000000001
 40
33.00000000000001
 40
33.00000000000001
 10
7.000811696868233
 20
23.9595675380011
 30
0.0
 10
7.000811696868219
 20
23.9595675380011
 30
11.00000000000001
 10
7.000811696868219
 20
23.9595675380011
 30
22.0
 10
7.000811696868233
 20
23.9595675380011
 30
33.0
  0
SPLINE
  5
117
330
1F
100
AcDbEntity
  8
DEFAULT
100
AcDbSpline
210
0.0
220
0.0
230
1.0
 70
    24
 71
     3
 72
     8
 73
     4
 74
     0
 42
0.0000000001
 43
0.0000000001
 40
-33.00000000000001
 40
-33.00000000000001
 40
-33.00000000000001
 40
-33.00000000000001
 40
0.0
 40
0.0
 40
0.0
 40
0.0
 10
7.347575437464023
 20
23.75936339902291
 30
32.99999999999999
 10
7.347575437464023
 20
23.75936339902291
 30
22.0
 10
7.347575437464016
 20
23.75936339902292
 30
11.00000000000001
 10
7.347575437464016
 20
23.75936339902292
 30
0.0
  0
SPLINE
  5
118
330
1F
100
AcDbEntity
  8
DEFAULT
100
AcDbSpline
210
0.0
220
0.0
230
1.0
 70
    24
 71
     3
 72
     8
 73
     4
 74
     0
 42
0.0000000001
 43
0.0000000001
 40
-88.95503346079057
 40
-88.95503346079057
 40
-88.95503346079057
 40
-88.95503346079057
 40
-88.55462518283419
 40
-88.55462518283419
 40
-88.55462518283419
 40
-88.55462518283419
 10
7.000811696868233
 20
23.9595675380011
 30
0.0
 10
7.116399610400151
 20
23.89283282500837
 30
0.0
 10
7.231987523932091
 20
23.82609811201564
 30
0.0
 10
7.347575437464016
 20
23.75936339902292
 30
0.0
  0
ARC
  5
119
330
1F
100
AcDbEntity
  8
DEFAULT
100
AcDbCircle
 10
44.5000000000026
 20
0.0000000000354719
 30
33.0
 40
44.50000000000299
100
AcDbArc
 50
147.4240410723478
 51
152.5759589276521
  0
ARC
  5
11A
330
1F
100
AcDbEntity
  8
DEFAULT
100
AcDbCircle
 10
44.50000000000261
 20
0.0000000000354684
 30
-0.0000000000001776
 40
44.500000000003
100
AcDbArc
 50
147.4240410723478
 51
152.575958927652
  0
SPLINE
  5
11B
330
1F
100
AcDbEntity
  8
DEFAULT
100
AcDbSpline
210
0.0
220
0.0
230
1.0
 70
    24
 71
     2
 72
     6
 73
     3
 74
     0
 42
0.0000000001
 43
0.0000000001
 40
1.594315527808538
 40
1.594315527808538
 40
1.594315527808538
 40
1.99472380576491
 40
1.99472380576491
 40
1.99472380576491
 10
5.000811696868224
 20
20.49546592286335
 30
10.00525411360243
 10
5.174193567166123
 20
20.39536385337426
 30
10.00525411360243
 10
5.347575437464022
 20
20.29526178388516
 30
10.00525411360243
  0
LINE
  5
11C
330
1F
100
AcDbEntity
  8
DEFAULT
100
AcDbLine
 10
5.961869531592384
 20
22.25000000003697
 30
33.0
 11
6.308279693106165
 21
22.05000000003697
 31
33.0
  0
ARC
  5
11D
330
1F
100
AcDbEntity
  8
DEFAULT
100
AcDbCircle
 10
44.5
 20
0.000000000036973
 30
16.5
 40
44.5
100
AcDbArc
 50
147.4240410723477
 51
152.5759589276524
  0
LINE
  5
11E
330
1F
100
AcDbEntity
  8
DEFAULT
100
AcDbLine
 10
5.961869531592498
 20
22.25000000003699
 30
33.0
 11
5.961869531592498
 21
22.25000000003699
 31
0.0
  0
SPLINE
  5
11F
330
1F
100
AcDbEntity
  8
DEFAULT
100
AcDbSpline
210
0.0
220
0.0
230
1.0
 70
    12
 71
     2
 72
     8
 73
     5
 74
     0
 42
0.0000000001
 43
0.0000000001
 40
207.4794450627897
 40
207.4794450627897
 40
207.4794450627897
 40
209.7013096271187
 40
209.7013096271187
 40
211.9231741914477
 40
211.9231741914477
 40
211.9231741914477
 10
7.347575437464028
 20
23.75936339902293
 30
16.5
 41
0.9819719686102741
 10
6.808537052360379
 20
22.91647116312534
 30
16.5
 41
0.9906900572270477
 10
6.308279693106272
 20
22.05000000003699
 30
16.5
 41
1.0
 10
5.808022333852162
 20
21.18352883694864
 30
16.5
 41
0.9906900572270477
 10
5.347575437464012
 20
20.29526178388515
 30
16.5
 41
0.9819719686102741
  0
LINE
  5
120
330
1F
100
AcDbEntity
  8
DEFAULT
100
AcDbLine
 10
6.308279693106272
 20
22.05000000003699
 30
33.0
 11
6.308279693106272
 21
22.05000000003699
 31
0.0
  0
LINE
  5
121
330
1F
100
AcDbEntity
  8
DEFAULT
100
AcDbLine
 10
5.96186953159239
 20
22.25000000003697
 30
0.0
 11
6.308279693106165
 21
22.05000000003697
 31
0.0
  0
SPLINE
  5
122
330
1F
100
AcDbEntity
  8
DEFAULT
100
AcDbSpline
210
0.0
220
0.0
230
1.0
 70
    24
 71
     2
 72
     6
 73
     3
 74
     0
 42
0.0000000001
 43
0.0000000001
 40
1.59431552780854
 40
1.59431552780854
 40
1.59431552780854
 40
1.994723805764908
 40
1.994723805764908
 40
1.994723805764908
 10
7.000811696868225
 20
23.9595675380011
 30
10.00525411360243
 10
7.174193567166123
 20
23.85946546851201
 30
10.00525411360243
 10
7.347575437464021
 20
23.75936339902291
 30
10.00525411360243
  0
CIRCLE
  5
123
330
1F
100
AcDbEntity
  8
DEFAULT
100
AcDbCircle
 10
44.50000000001841
 20
0.0000000000369676
 30
33.0
 40
44.5
  0
LINE
  5
124
330
1F
100
AcDbEntity
  8
DEFAULT
100
AcDbLine
 10
83.57576432182347
 20
-21.29165664445049
 30
33.0
 11
83.57576432182347
 21
-21.29165664445049
 31
32.6
  0
CIRCLE
  5
125
330
1F
100
AcDbEntity
  8
DEFAULT
100
AcDbCircle
 10
44.50000000001841
 20
0.0000000000369676
 30
32.6
 40
44.5
  0
CIRCLE
  5
126
330
1F
100
AcDbEntity
  8
DEFAULT
100
AcDbCircle
 10
44.50000000001841
 20
0.0000000000369676
 30
32.8
 40
44.50000000000001
  0
LINE
  5
127
330
1F
100
AcDbEntity
  8
DEFAULT
100
AcDbLine
 10
23.20834335553095
 20
-39.07576432176809
 30
33.0
 11
23.20834335553095
 21
-39.07576432176809
 31
32.6
  0
LINE
  5
128
330
1F
100
AcDbEntity
  8
DEFAULT
100
AcDbLine
 10
5.42423567821335
 20
21.29165664452443
 30
33.0
 11
5.42423567821335
 21
21.29165664452443
 31
32.6
  0
LINE
  5
129
330
1F
100
AcDbEntity
  8
DEFAULT
100
AcDbLine
 10
65.79165664450588
 20
39.07576432184203
 30
33.0
 11
65.79165664450588
 21
39.07576432184203
 31
32.6
  0
SPLINE
  5
12A
330
1F
100
AcDbEntity
  8
DEFAULT
100
AcDbSpline
210
0.0
220
0.0
230
1.0
 70
    24
 71
     2
 72
     6
 73
     3
 74
     0
 42
0.0000000001
 43
0.0000000001
 40
-44.5
 40
-44.5
 40
-44.5
 40
44.5
 40
44.5
 40
44.5
 10
5.424235678213355
 20
21.29165664452443
 30
33.0
 10
44.50000000001841
 20
0.0000000000369678
 30
33.0
 10
83.57576432182347
 20
-21.29165664445049
 30
33.0
  0
SPLINE
  5
12B
330
1F
100
AcDbEntity
  8
DEFAULT
100
AcDbSpline
210
0.0
220
0.0
230
1.0
 70
    24
 71
     2
 72
     6
 73
     3
 74
     0
 42
0.0000000001
 43
0.0000000001
 40
-44.5
 40
-44.5
 40
-44.5
 40
44.5
 40
44.5
 40
44.5
 10
23.20834335553095
 20
-39.07576432176809
 30
33.0
 10
44.50000000001842
 20
0.000000000036966
 30
33.0
 10
65.79165664450588
 20
39.07576432184202
 30
33.0
  0
SPLINE
  5
12C
330
1F
100
AcDbEntity
  8
DEFAULT
100
AcDbSpline
210
0.0
220
0.0
230
1.0
 70
    24
 71
     2
 72
     6
 73
     3
 74
     0
 42
0.0000000001
 43
0.0000000001
 40
-44.5
 40
-44.5
 40
-44.5
 40
44.5
 40
44.5
 40
44.5
 10
5.424235678213355
 20
21.29165664452443
 30
32.6
 10
44.50000000001841
 20
0.0000000000369678
 30
32.6
 10
83.57576432182347
 20
-21.29165664445049
 30
32.6
  0
SPLINE
  5
12D
330
1F
100
AcDbEntity
  8
DEFAULT
100
AcDbSpline
210
0.0
220
0.0
230
1.0
 70
    24
 71
     2
 72
     6
 73
     3
 74
     0
 42
0.0000000001
 43
0.0000000001
 40
-44.5
 40
-44.5
 40
-44.5
 40
44.5
 40
44.5
 40
44.5
 10
65.79165664450588
 20
39.07576432184202
 30
32.6
 10
44.50000000001842
 20
0.000000000036966
 30
32.6
 10
23.20834335553095
 20
-39.07576432176809
 30
32.6
  0
CIRCLE
  5
12E
330
1F
100
AcDbEntity
  8
DEFAULT
100
AcDbCircle
 10
44.5
 20
0.0000000000369747
 30
33.8
 40
44.50000000001647
  0
LINE
  5
12F
330
1F
100
AcDbEntity
  8
DEFAULT
100
AcDbLine
 10
84.30348954262438
 20
-19.89804563845873
 30
33.8
 11
84.30348954262438
 21
-19.89804563845873
 31
33.0
  0
CIRCLE
  5
130
330
1F
100
AcDbEntity
  8
DEFAULT
100
AcDbCircle
 10
44.5
 20
0.0000000000369747
 30
33.0
 40
44.50000000001647
  0
CIRCLE
  5
131
330
1F
100
AcDbEntity
  8
DEFAULT
100
AcDbCircle
 10
44.5
 20
0.0000000000369747
 30
33.4
 40
44.50000000001647
  0
LINE
  5
132
330
1F
100
AcDbEntity
  8
DEFAULT
100
AcDbLine
 10
24.6019543615043
 20
-39.8034895425874
 30
33.8
 11
24.6019543615043
 21
-39.8034895425874
 31
33.0
  0
LINE
  5
133
330
1F
100
AcDbEntity
  8
DEFAULT
100
AcDbLine
 10
4.696510457375624
 20
19.89804563853268
 30
33.8
 11
4.696510457375624
 21
19.89804563853268
 31
33.0
  0
LINE
  5
134
330
1F
100
AcDbEntity
  8
DEFAULT
100
AcDbLine
 10
64.3980456384957
 20
39.80348954266135
 30
33.8
 11
64.3980456384957
 21
39.80348954266135
 31
33.0
  0
SPLINE
  5
135
330
1F
100
AcDbEntity
  8
DEFAULT
100
AcDbSpline
210
0.0
220
0.0
230
1.0
 70
    24
 71
     2
 72
     6
 73
     3
 74
     0
 42
0.0000000001
 43
0.0000000001
 40
-44.50000000001647
 40
-44.50000000001647
 40
-44.50000000001647
 40
44.50000000001647
 40
44.50000000001647
 40
44.50000000001647
 10
4.696510457375622
 20
19.89804563853268
 30
33.8
 10
44.5
 20
0.0000000000369749
 30
33.8
 10
84.30348954262438
 20
-19.89804563845873
 30
33.8
  0
SPLINE
  5
136
330
1F
100
AcDbEntity
  8
DEFAULT
100
AcDbSpline
210
0.0
220
0.0
230
1.0
 70
    24
 71
     2
 72
     6
 73
     3
 74
     0
 42
0.0000000001
 43
0.0000000001
 40
-44.50000000001647
 40
-44.50000000001647
 40
-44.50000000001647
 40
44.50000000001647
 40
44.50000000001647
 40
44.50000000001647
 10
24.6019543615043
 20
-39.8034895425874
 30
33.8
 10
44.5
 20
0.0000000000369766
 30
33.8
 10
64.3980456384957
 20
39.80348954266135
 30
33.8
  0
SPLINE
  5
137
330
1F
100
AcDbEntity
  8
DEFAULT
100
AcDbSpline
210
0.0
220
0.0
230
1.0
 70
    24
 71
     2
 72
     6
 73
     3
 74
     0
 42
0.0000000001
 43
0.0000000001
 40
-44.50000000001647
 40
-44.50000000001647
 40
-44.50000000001647
 40
44.50000000001647
 40
44.50000000001647
 40
44.50000000001647
 10
4.696510457375622
 20
19.89804563853268
 30
33.0
 10
44.5
 20
0.0000000000369749
 30
33.0
 10
84.30348954262438
 20
-19.89804563845873
 30
33.0
  0
SPLINE
  5
138
330
1F
100
AcDbEntity
  8
DEFAULT
100
AcDbSpline
210
0.0
220
0.0
230
1.0
 70
    24
 71
     2
 72
     6
 73
     3
 74
     0
 42
0.0000000001
 43
0.0000000001
 40
-44.50000000001647
 40
-44.50000000001647
 40
-44.50000000001647
 40
44.50000000001647
 40
44.50000000001647
 40
44.50000000001647
 10
64.3980456384957
 20
39.80348954266135
 30
33.0
 10
44.5
 20
0.0000000000369766
 30
33.0
 10
24.6019543615043
 20
-39.8034895425874
 30
33.0
  0
ENDSEC
  0
SECTION
  2
OBJECTS
  0
DICTIONARY
  5
C
330
0
100
AcDbDictionary
281
     1
  3
ACAD_GROUP
350
D
  3
ACAD_LAYOUT
350
1A
  3
ACAD_MLINESTYLE
350
17
  3
ACAD_PLOTSETTINGS
350
19
  3
ACAD_PLOTSTYLENAME
350
E
  0
DICTIONARY
  5
D
102
{ACAD_REACTORS
330
C
102
}
330
C
100
AcDbDictionary
281
     1
  0
DICTIONARY
  5
1A
102
{ACAD_REACTORS
330
C
102
}
330
C
100
AcDbDictionary
281
     1
  3
Layout1
350
1E
  3
Layout2
350
26
  3
Model
350
22
  0
DICTIONARY
  5
17
102
{ACAD_REACTORS
330
C
102
}
330
C
100
AcDbDictionary
281
     1
  3
Standard
350
18
  0
DICTIONARY
  5
19
102
{ACAD_REACTORS
330
C
102
}
330
C
100
AcDbDictionary
281
     1
  0
ACDBDICTIONARYWDFLT
  5
E
102
{ACAD_REACTORS
330
C
102
}
330
C
100
AcDbDictionary
281
     1
  3
Normal
350
F
100
AcDbDictionaryWithDefault
340
F
  0
LAYOUT
  5
1E
102
{ACAD_REACTORS
330
1A
102
}
330
1A
100
AcDbPlotSettings
  1

  2
none_device
  4

  6

 40
0.0
 41
0.0
 42
0.0
 43
0.0
 44
0.0
 45
0.0
 46
0.0
 47
0.0
 48
0.0
 49
0.0
140
0.0
141
0.0
142
1.0
143
1.0
 70
   688
 72
     0
 73
     0
 74
     5
  7

 75
    16
 76
     0
 77
     2
 78
   300
147
1.0
148
0.0
149
0.0
100
AcDbLayout
  1
Layout1
 70
     1
 71
     1
 10
0.0
 20
0.0
 11
12.0
 21
9.0
 12
0.0
 22
0.0
 32
0.0
 14
1.000000000000000E+20
 24
1.000000000000000E+20
 34
1.000000000000000E+20
 15
-1.000000000000000E+20
 25
-1.000000000000000E+20
 35
-1.000000000000000E+20
146
0.0
 13
0.0
 23
0.0
 33
0.0
 16
1.0
 26
0.0
 36
0.0
 17
0.0
 27
1.0
 37
0.0
 76
     0
330
1B
  0
LAYOUT
  5
26
102
{ACAD_REACTORS
330
1A
102
}
330
1A
100
AcDbPlotSettings
  1

  2
none_device
  4

  6

 40
0.0
 41
0.0
 42
0.0
 43
0.0
 44
0.0
 45
0.0
 46
0.0
 47
0.0
 48
0.0
 49
0.0
140
0.0
141
0.0
142
1.0
143
1.0
 70
   688
 72
     0
 73
     0
 74
     5
  7

 75
    16
 76
     0
 77
     2
 78
   300
147
1.0
148
0.0
149
0.0
100
AcDbLayout
  1
Layout2
 70
     1
 71
     2
 10
0.0
 20
0.0
 11
0.0
 21
0.0
 12
0.0
 22
0.0
 32
0.0
 14
0.0
 24
0.0
 34
0.0
 15
0.0
 25
0.0
 35
0.0
146
0.0
 13
0.0
 23
0.0
 33
0.0
 16
1.0
 26
0.0
 36
0.0
 17
0.0
 27
1.0
 37
0.0
 76
     0
330
23
  0
LAYOUT
  5
22
102
{ACAD_REACTORS
330
1A
102
}
330
1A
100
AcDbPlotSettings
  1

  2
none_device
  4

  6

 40
0.0
 41
0.0
 42
0.0
 43
0.0
 44
0.0
 45
0.0
 46
0.0
 47
0.0
 48
0.0
 49
0.0
140
0.0
141
0.0
142
1.0
143
1.0
 70
  1712
 72
     0
 73
     0
 74
     0
  7

 75
     0
 76
     0
 77
     2
 78
   300
147
1.0
148
0.0
149
0.0
100
AcDbLayout
  1
Model
 70
     1
 71
     0
 10
0.0
 20
0.0
 11
12.0
 21
9.0
 12
0.0
 22
0.0
 32
0.0
 14
-0.0000000000164704
 24
-44.50000000000001
 34
-0.0000000000000142
 15
222.3560521433285
 25
44.50000000005345
 35
49.7821627002781
146
0.0
 13
0.0
 23
0.0
 33
0.0
 16
1.0
 26
0.0
 36
0.0
 17
0.0
 27
1.0
 37
0.0
 76
     0
330
1F
  0
MLINESTYLE
  5
18
102
{ACAD_REACTORS
330
17
102
}
330
17
100
AcDbMlineStyle
  2
Standard
 70
     0
  3

 62
   256
 51
90.0
 52
90.0
 71
     2
 49
0.5
 62
   256
  6
BYLAYER
 49
-0.5
 62
   256
  6
BYLAYER
  0
ACDBPLACEHOLDER
  5
F
102
{ACAD_REACTORS
330
E
102
}
330
E
  0
ENDSEC
  0
EOF
